Song name
# A B C D E F G H I J K L M N O P Q R S T U V W X Y Z

Endwell - Single And Loving It tab

#----------------------------------PLEASE NOTE---------------------------------#
#This file is the author's own work and represents their interpretation of the #
#song. You may only use this file for private study, scholarship, or research. #
#------------------------------------------------------------------------------#

SINGLE AND LOVING IT
As recorded by Endwell
(From the 2006 Album HOMELAND INSECURITY)

Transcribed by Jonathan Rose
	

Words and Music by Endwell

Gtr I (Db Ab Db Gb Bb Eb) - 'Untitled'
Gtr II (Db Ab Db Gb Bb Eb) - 'Untitled'

 Intro
  Hardcore Q=90
  E5 C5 G5         A5      G5  C5      D5
 4/4
  Gtr I
  E. E. H    +E    E S E S S S E S E S S S
|----------------|-------------------------|
|----------------|-------------------------|
|----5-----------|-------------5-5-5-5-7---|
|-2--5--5----(5)-|-7-7-7-7-5---5-5-5-5-7---|
|-2--3--5----(5)-|-7-7-7-7-5---3-3-3-3-5---|
|-2-----5----(5)-|-7-7-7-7-5---------------|
|
| Gtr II
| E. E. H    +E    E S E S S S E S E S S S
|----------------|-------------------------|
|----------------|-------------------------|
|----5-----------|-------------5-5-5-5-7---|
|-2--5--5----(5)-|-7-7-7-7-5---5-5-5-5-7---|
|-2--3--5----(5)-|-7-7-7-7-5---3-3-3-3-5---|
|-2-----5----(5)-|-7-7-7-7-5---------------|


  F5                  E5 C5 G5
  E E E E E   E E E   E. E. H    +E
|-------------------|----------------|
|-------------------|----------------|
|-5-4---------------|-4--------------|
|-----5-2-------2-5-|----5--0----(0)-|
|---------3---5-----|----------------|
|-------------------|----------------|
|
| Q   Q   S S E E E   E. E. H    +E
|-------------------|----------------|
|-------------------|----------------|
|-------------------|----5-----------|
|-3---3---3-3-3-3-3-|-2--5--5----(5)-|
|-3---3---3-3-3-3-3-|-2--3--5----(5)-|
|-3---3---3-3-3-3-3-|-2-----5----(5)-|


  A5      G5  C5      D5    F5                  E5 C5 G5
  E S E S S S E S E S S S   E E E E E   E E E   E. E. H    +E
|-------------------------|-------------------|----------------||
|-------------------------|-------------------|-5--3-----------||
|-------------5-5-5-5-7---|-5-4---------------|-------0----(0)-||
|-7-7-7-7-5---5-5-5-5-7---|-----5-2-------2-5-|----------------||
|-7-7-7-7-5---3-3-3-3-5---|---------3---5-----|----------------||
|-7-7-7-7-5---------------|-------------------|----------------||
|
| E S E S S S E S E S S S   Q   Q   S S E E E   E. E. H    +E
|-------------------------|-------------------|----------------||
|-------------------------|-------------------|----------------||
|-------------5-5-5-5-7---|-------------------|----5-----------||
|-7-7-7-7-5---5-5-5-5-7---|-3---3---3-3-3-3-3-|-2--5--5----(5)-||
|-7-7-7-7-5---3-3-3-3-5---|-3---3---3-3-3-3-3-|-2--3--5----(5)-||
|-7-7-7-7-5---------------|-3---3---3-3-3-3-3-|-2-----5----(5)-||


 Verse
  F5        C5  G5        D5    A5        N.C.
      PM--|         PM--|           PM--|
  E S S S S S S E S S S S S S   E S S S S S S  E  E     E     E
|-----------------------------|-----------------------------------|
|-----------------------------|-----------------------------------|
|-----------5-------------7---|-----------9-9--7--5-----4-----5---|
|-3-3-------5---5-5-------7---|-7-7-------x-x--x--x-----x-----x---|
|-3-3-3-3-3-3---5-5-5-5-5-5---|-7-7-7-7-7-7-7--5--3-----2-----3---|
|-3-3-3-3-3-----5-5-5-5-5-----|-7-7-7-7-7-------------------------|
|
|     PM--|         PM--|           PM--|
| E S S S S S S E S S S S S S   E S S S S S S  E  S  S  S  S  S S
|-----------------------------|-----------------------------------|
|-----------------------------|-----------------------------------|
|-----------5-------------7---|-----------9-9-12-12-12-12-12S14---|
|-3-3-------5---5-5-------7---|-7-7-------x-x--x--x--x--x--x--x---|
|-3-3-3-3-3-3---5-5-5-5-5-5---|-7-7-7-7-7-7-7-10-10-10-10-10S12---|
|-3-3-3-3-3-----5-5-5-5-5-----|-7-7-7-7-7-------------------------|


  F5        E5  D5        G5    A5
      PM|           PM--|
  E S S S S S S E S S S S S S   Q   E   E   E   E   E   E
|-----------------------------|---------------------8------|
|-----------------------------|------------10----------10--|
|-----------------------------|----(9)----------9----------|
|-3-3-----3-2---0-0-------5---|-7--(7)-(7)-(7)-(7)-(7)-(7)-|
|-3-3-3-3-3-2---0-0-0-0-0-5---|-7--(7)-(7)-(7)-(7)-(7)-(7)-|
|-3-3-3-3-3-2---0-0-0-0-0-5---|-7--(7)-(7)-(7)-(7)-(7)-(7)-|
|
|     PM|           PM--|
| E S S S S S S E S S S S S S   W
|-----------------------------|----------------------------|
|-----------------------------|----------------------------|
|-----------------------------|----------------------------|
|-3-3-----3-2---0-0-------5---|-7--------------------------|
|-3-3-3-3-3-2---0-0-0-0-0-5---|-7--------------------------|
|-3-3-3-3-3-2---0-0-0-0-0-5---|-7--------------------------|


  F5      C5  G5      D5    A5      N.C.
  E S E S S S E S E S S S   E S E S S S  E  E     E     E
|-------------------------|---------------------------------|
|-------------------------|---------------------------------|
|---------5-----------7---|---------9-9--7--5-----4-----5---|
|-3-3-3---5---5-5-5---7---|-7-7-7---x-x--x--x-----x-----x---|
|-3-3-3---3---5-5-5---5---|-7-7-7---7-7--5--3-----2-----3---|
|-3-3-3-------5-5-5-------|-7-7-7---------------------------|
|
| E S E S S S E S E S S S   E S E S S S  E  S  S  S  S  S S
|-------------------------|---------------------------------|
|-------------------------|---------------------------------|
|---------5-----------7---|---------9-9-12-12-12-12-12S14---|
|-3-3-3---5---5-5-5---7---|-7-7-7---x-x--x--x--x--x--x--x---|
|-3-3-3---3---5-5-5---5---|-7-7-7---7-7-10-10-10-10-10S12---|
|-3-3-3-------5-5-5-------|-7-7-7---------------------------|


  F5        E5D5        G5  A5
  Gtrs I, II
  E S S S S E E S S S S E   W
|-------------------------|------|
|-------------------------|------|
|-------------------------|------|
|-3-3-3-3-3-2-0-0-0-0-0-5-|-7----|
|-3-3-3-3-3-2-0-0-0-0-0-5-|-7----|
|-3-3-3-3-3-2-0-0-0-0-0-5-|-7----|


  F5         G5         E5 C5 G5
  W          W          E. E. Q.   S E.
|----------|----------|-----------------||
|----------|----------|-----------------||
|----------|----------|----5------------||
|-3--------|-5--------|-2--5--5----5----||
|-3--------|-5--------|-2--3--5----5----||
|-3--------|-5--------|-2-----5----5----||


 Chorus
  A5        Asus2       C5              F5          G5
                                        PM----|
  E S E S E E S E S E    E  S  E.  S  E T T S S S S S S
|---------------------|---------------------------------|
|---------------------|---------------------------------|
|---------------------|---------------------------------|
|-7-7-7-7-7-9-9-9-9-9-|-10-10-10--10-10---------3---5---|
|-7-7-7-7-7-7-7-7-7-7-|-10-10-10--10-10-3-3-3-3-3---5---|
|-7-7-7-7-7-7-7-7-7-7-|-10-10-10--10-10-3-3-3-3-3---5---|


  A5        Asus2       C5                                      B5
  E S E S E E S E S E    E  S  S  S  S  S S  S  S  S  S  S S  S S
|---------------------|-------------------------------------------|
|---------------------|-------------------------------------------|
|---------------------|-------------------------------------------|
|-7-7-7-7-7-9-9-9-9-9-|-10-10-10-10-10-10---10-10-10-10-10---10-9-|
|-7-7-7-7-7-7-7-7-7-7-|-10-10-10-10-10-10---10-10-10-10-10---10-9-|
|-7-7-7-7-7-7-7-7-7-7-|-10-10-10-10-10-10---10-10-10-10-10---10-9-|


  A5        Asus2       C5              F5          G5
  Gtr I
  E S E S E E S E S E    E  S  E.  S  E S   S S E   S S
|---------------------|---------------------------------|
|---------------------|---------------------------------|
|-9-9-9-9-9-7-7-7-5-7-|--5--5--5---5--5-5---5-5-5---7---|
|-x-x-x-x-x-x-x-x-x-x-|--x--x--x---x--x-x---x-x-x---x---|
|-7-7-7-7-7-5-5-5-3-5-|--3--3--3---3--3-3---3-3-3---5---|
|---------------------|---------------------------------|
|
| Gtr II
|                                       PM----|
| E S E S E E S E S E    E  S  E.  S  E T T S S S S S S
|---------------------|---------------------------------|
|---------------------|---------------------------------|
|---------------------|---------------------------------|
|-7-7-7-7-7-9-9-9-9-9-|-10-10-10--10-10---------3---5---|
|-7-7-7-7-7-7-7-7-7-7-|-10-10-10--10-10-3-3-3-3-3---5---|
|-7-7-7-7-7-7-7-7-7-7-|-10-10-10--10-10-3-3-3-3-3---5---|


  A5        Asus2       F5                G5
  E S E S E E S E S E   E +S  S H.        W
|---------------------|-----------------|------||
|---------------------|-----------------|------||
|-9-9-9-9-9-7-7-7-7-7-|-7-(7)s9-5-------|-4----||
|-x-x-x-x-x-x-x-x-x-x-|-x-----x-x-------|-x----||
|-7-7-7-7-7-5-5-5-5-5-|-5-(5)s7-3-------|-2----||
|---------------------|-----------------|------||
|
| E S E S E E S E S E   W                 W
|---------------------|-----------------|------||
|---------------------|-----------------|------||
|---------------------|-----------------|------||
|-7-7-7-7-7-9-9-9-9-9-|-3---------------|-5----||
|-7-7-7-7-7-7-7-7-7-7-|-3---------------|-5----||
|-7-7-7-7-7-7-7-7-7-7-|-3---------------|-5----||


 Bridge
  A5      G5  C5      D5    F5                  E5 C5 G5
  E S E S S S E S E S S S   E E E E E   E E E   E. E. H    +E
|-------------------------|-------------------|----------------||
|-------------------------|-------------------|-5--3-----------||
|-------------5-5-5-5-7---|-5-4---------------|-------0----(0)-||
|-7-7-7-7-5---5-5-5-5-7---|-----5-2-------2-5-|----------------||
|-7-7-7-7-5---3-3-3-3-5---|---------3---5-----|----------------||
|-7-7-7-7-5---------------|-------------------|----------------||
|
| E S E S S S E S E S S S   Q   Q   S S E E E   E. E. H    +E
|-------------------------|-------------------|----------------||
|-------------------------|-------------------|----------------||
|-------------5-5-5-5-7---|-------------------|----5-----------||
|-7-7-7-7-5---5-5-5-5-7---|-3---3---3-3-3-3-3-|-2--5--5----(5)-||
|-7-7-7-7-5---3-3-3-3-5---|-3---3---3-3-3-3-3-|-2--3--5----(5)-||
|-7-7-7-7-5---------------|-3---3---3-3-3-3-3-|-2-----5----(5)-||


 Verse
  F5        C5  G5        D5    A5        N.C.
      PM--|         PM--|           PM--|
  E S S S S S S E S S S S S S   E S S S S S S  E  E     E     E
|-----------------------------|-----------------------------------|
|-----------------------------|-----------------------------------|
|-----------5-------------7---|-----------9-9--7--5-----4-----5---|
|-3-3-------5---5-5-------7---|-7-7-------x-x--x--x-----x-----x---|
|-3-3-3-3-3-3---5-5-5-5-5-5---|-7-7-7-7-7-7-7--5--3-----2-----3---|
|-3-3-3-3-3-----5-5-5-5-5-----|-7-7-7-7-7-------------------------|
|
|     PM--|         PM--|           PM--|
| E S S S S S S E S S S S S S   E S S S S S S  E  S  S  S  S  S S
|-----------------------------|-----------------------------------|
|-----------------------------|-----------------------------------|
|-----------5-------------7---|-----------9-9-12-12-12-12-12S14---|
|-3-3-------5---5-5-------7---|-7-7-------x-x--x--x--x--x--x--x---|
|-3-3-3-3-3-3---5-5-5-5-5-5---|-7-7-7-7-7-7-7-10-10-10-10-10S12---|
|-3-3-3-3-3-----5-5-5-5-5-----|-7-7-7-7-7-------------------------|


  F5        E5  D5        G5    A5
      PM|           PM--|
  E S S S S S S E S S S S S S   Q   E   E   E   E   E   E
|-----------------------------|---------------------8------|
|-----------------------------|------------10----------10--|
|-----------------------------|----(9)----------9----------|
|-3-3-----3-2---0-0-------5---|-7--(7)-(7)-(7)-(7)-(7)-(7)-|
|-3-3-3-3-3-2---0-0-0-0-0-5---|-7--(7)-(7)-(7)-(7)-(7)-(7)-|
|-3-3-3-3-3-2---0-0-0-0-0-5---|-7--(7)-(7)-(7)-(7)-(7)-(7)-|
|
|     PM|           PM--|
| E S S S S S S E S S S S S S   W
|-----------------------------|----------------------------|
|-----------------------------|----------------------------|
|-----------------------------|----------------------------|
|-3-3-----3-2---0-0-------5---|-7--------------------------|
|-3-3-3-3-3-2---0-0-0-0-0-5---|-7--------------------------|
|-3-3-3-3-3-2---0-0-0-0-0-5---|-7--------------------------|


  F5      C5  G5      D5    A5      N.C.
  E S E S S S E S E S S S   E S E S S S  E  E     E     E
|-------------------------|---------------------------------|
|-------------------------|---------------------------------|
|---------5-----------7---|---------9-9--7--5-----4-----5---|
|-3-3-3---5---5-5-5---7---|-7-7-7---x-x--x--x-----x-----x---|
|-3-3-3---3---5-5-5---5---|-7-7-7---7-7--5--3-----2-----3---|
|-3-3-3-------5-5-5-------|-7-7-7---------------------------|
|
| E S E S S S E S E S S S   E S E S S S  E  S  S  S  S  S S
|-------------------------|---------------------------------|
|-------------------------|---------------------------------|
|---------5-----------7---|---------9-9-12-12-12-12-12S14---|
|-3-3-3---5---5-5-5---7---|-7-7-7---x-x--x--x--x--x--x--x---|
|-3-3-3---3---5-5-5---5---|-7-7-7---7-7-10-10-10-10-10S12---|
|-3-3-3-------5-5-5-------|-7-7-7---------------------------|


  F5        E5D5
                    2/4
  Gtrs I, II
  E S S S S E H      +H
|------------------|--------||
|------------------|--------||
|------------------|--------||
|-3-3-3-3-3-2-0----|-(0)----||
|-3-3-3-3-3-2-0----|-(0)----||
|-3-3-3-3-3-2-0----|-(0)----||


 Chorus
  A5        Asus2       C5              F5          G5
 4/4
                                        PM----|
  E S E S E E S E S E    E  S  E.  S  E T T S S S S S S
|---------------------|---------------------------------|
|---------------------|---------------------------------|
|---------------------|---------------------------------|
|-7-7-7-7-7-9-9-9-9-9-|-10-10-10--10-10---------3---5---|
|-7-7-7-7-7-7-7-7-7-7-|-10-10-10--10-10-3-3-3-3-3---5---|
|-7-7-7-7-7-7-7-7-7-7-|-10-10-10--10-10-3-3-3-3-3---5---|


  A5        Asus2       C5                                      B5
  E S E S E E S E S E    E  S  S  S  S  S S  S  S  S  S  S S  S S
|---------------------|-------------------------------------------|
|---------------------|-------------------------------------------|
|---------------------|-------------------------------------------|
|-7-7-7-7-7-9-9-9-9-9-|-10-10-10-10-10-10---10-10-10-10-10---10-9-|
|-7-7-7-7-7-7-7-7-7-7-|-10-10-10-10-10-10---10-10-10-10-10---10-9-|
|-7-7-7-7-7-7-7-7-7-7-|-10-10-10-10-10-10---10-10-10-10-10---10-9-|


  A5        Asus2       C5              F5        G5
  Gtr I
  E S E S E E S E S E    E  S  E.  S  E S   S S E S S
|---------------------|-------------------------------|
|---------------------|-------------------------------|
|-9-9-9-9-9-7-7-7-5-7-|--5--5--5---5--5-5---5-5-5-7---|
|-x-x-x-x-x-x-x-x-x-x-|--x--x--x---x--x-x---x-x-x-x---|
|-7-7-7-7-7-5-5-5-3-5-|--3--3--3---3--3-3---3-3-3-5---|
|---------------------|-------------------------------|
|
| Gtr II
|                                       PM------|
| E S E S E E S E S E    E  S  E.  S  E T T S S E S S
|---------------------|-------------------------------|
|---------------------|-------------------------------|
|---------------------|-------------------------------|
|-7-7-7-7-7-9-9-9-9-9-|-10-10-10--10-10-----------5---|
|-7-7-7-7-7-7-7-7-7-7-|-10-10-10--10-10-3-3-3-3-3-5---|
|-7-7-7-7-7-7-7-7-7-7-|-10-10-10--10-10-3-3-3-3-3-5---|


  A5        Asus2       F5                G5
  E S E S E E S E S E   E +S  S H.        W
|---------------------|-----------------|------||
|---------------------|-----------------|------||
|-9-9-9-9-9-7-7-7-7-7-|-7-(7)s9-5-------|-4----||
|-x-x-x-x-x-x-x-x-x-x-|-x-----x-x-------|-x----||
|-7-7-7-7-7-5-5-5-5-5-|-5-(5)s7-3-------|-2----||
|---------------------|-----------------|------||
|
| E S E S E E S E S E   W                 W
|---------------------|-----------------|------||
|---------------------|-----------------|------||
|---------------------|-----------------|------||
|-7-7-7-7-7-9-9-9-9-9-|-3---------------|-5----||
|-7-7-7-7-7-7-7-7-7-7-|-3---------------|-5----||
|-7-7-7-7-7-7-7-7-7-7-|-3---------------|-5----||


 Bridge
  A5      G5  C5      D5    F5                        E5 C5 G5
  Gtrs I, II
                                  PM      PM
  E S E S S S E S E S S S   Q  E. S S S S S S S S S   E. E. Q.   S E.
|-------------------------|-------------------------|-----------------||
|-------------------------|-------------------------|-----------------||
|-------------5-5-5-5-7---|-------------------------|----5------------||
|-7-7-7-7-5---5-5-5-5-7---|-3--3----3-3-----3-3-3-3-|-2--5--5----5----||
|-7-7-7-7-5---3-3-3-3-5---|-3--3--3-3-3---3-3-3-3-3-|-2--3--5----5----||
|-7-7-7-7-5---------------|-3--3--3-3-3---3-3-3-3-3-|-2-----5----5----||


 Verse
  F5          C5  G5           D5  A5
  Gtr I
  S S S S  S  S S S  S S S S S S S S
|------------------------------------|
|------------------------------------|
|-5-5-5-5--5--5-5-5--5-5-5-5-5-5-5-5-|
|-x-x-x-x--x--x-x-x--x-x-x-x-x-x-x-x-|
|-3-3-3-3--3--3-3-3--3-3-3-3-3-3-3-3-|
|------------------------------------|
|
| Gtr II
| Q       +S  S S Q.           S S S
|------------------------------------|
|------------------------------------|
|-------------5----------------7-----|
|-3-------(3)-5---5------------7---7-|
|-3-------(3)-3---5------------5---7-|
|-3-------(3)-----5----------------7-|


                N.C.                      F5
   S  S S S  S  S S  S S  S  S  S  S  S S S
|-------------------------------------------|
|-------------------------------------------|
|--5--5-5-5--5--5-5--4-4--4--4--4S=5--5-5-4-|
|--x--x-x-x--x--x-x--x-x--x--x--x--x--x-x-x-|
|--3--3-3-3--3--3-3--2-2--2--2--2S=3--3-3-2-|
|-------------------------------------------|
|
| +Q        +S  S S  E    S  S  S  S  S S S
|-------------------------------------------|
|-------------------------------------------|
|---------------9-9-12---12-12-12-12S14-----|
|-(7)-------(7)-x-x--x----x--x--x--x--x---3-|
|-(7)-------(7)-7-7-10---10-10-10-10S12---3-|
|-(7)-------(7)---------------------------3-|


              E5  D5           G5  A5
   S  S S S S S S S  S S S S S S S S    S  S S S S S S S S S S S S S S S
|------------------------------------|-----------------------------------|
|------------------------------------|-----------------------------------|
|--5--5-5-5-5-5-5-5--5-5-5-5-5-5-5-5-|--5--5-5-5-5-5-5-5-4-4-4-4-4-4-4-4-|
|--x--x-x-x-x-x-x-x--x-x-x-x-x-x-x-x-|--x--x-x-x-x-x-x-x-x-x-x-x-x-x-x-x-|
|--3--3-3-3-3-3-3-3--3-3-3-3-3-3-3-3-|--3--3-3-3-3-3-3-3-2-2-2-2-2-2-2-2-|
|------------------------------------|-----------------------------------|
|
| +Q        S S S Q.           E   S   +W
|------------------------------------|-----------------------------------|
|------------------------------------|-----------------------------------|
|------------------------------------|-----------------------------------|
|-(3)-------3-2---0------------5---7-|-(7)-------------------------------|
|-(3)-------3-2---0------------5---7-|-(7)-------------------------------|
|-(3)-------3-2---0------------5---7-|-(7)-------------------------------|


  F5      C5  G5      D5    A5      N.C.
  E S E S S S E S E S S S   E S E S S S  E  E     E     E
|-------------------------|---------------------------------|
|-------------------------|---------------------------------|
|---------5-----------7---|---------9-9--7--5-----4-----5---|
|-3-3-3---5---5-5-5---7---|-7-7-7---x-x--x--x-----x-----x---|
|-3-3-3---3---5-5-5---5---|-7-7-7---7-7--5--3-----2-----3---|
|-3-3-3-------5-5-5-------|-7-7-7---------------------------|
|
| E S E S S S E S E S S S   E S E S S S  E  S  S  S  S  S S
|-------------------------|---------------------------------|
|-------------------------|---------------------------------|
|---------5-----------7---|---------9-9-12-12-12-12-12S14---|
|-3-3-3---5---5-5-5---7---|-7-7-7---x-x--x--x--x--x--x--x---|
|-3-3-3---3---5-5-5---5---|-7-7-7---7-7-10-10-10-10-10S12---|
|-3-3-3-------5-5-5-------|-7-7-7---------------------------|


  F5      E5D5
                  2/4
  Gtrs I, II
  E S E S E H      +H
|----------------|--------||
|----------------|--------||
|----------------|--------||
|-3-3-3-3-2-0----|-(0)----||
|-3-3-3-3-2-0----|-(0)----||
|-3-3-3-3-2-0----|-(0)----||


 Chorus
  A5        Asus2       C5              F5          G5
 4/4
                                        PM----|
  E S E S E E S E S E    E  S  E.  S  E T T S S S S S S
|---------------------|---------------------------------|
|---------------------|---------------------------------|
|---------------------|---------------------------------|
|-7-7-7-7-7-9-9-9-9-9-|-10-10-10--10-10---------3---5---|
|-7-7-7-7-7-7-7-7-7-7-|-10-10-10--10-10-3-3-3-3-3---5---|
|-7-7-7-7-7-7-7-7-7-7-|-10-10-10--10-10-3-3-3-3-3---5---|


  A5        Asus2       C5                                      B5
  E S E S E E S E S E    E  S  S  S  S  S S  S  S  S  S  S S  S S
|---------------------|-------------------------------------------|
|---------------------|-------------------------------------------|
|---------------------|-------------------------------------------|
|-7-7-7-7-7-9-9-9-9-9-|-10-10-10-10-10-10---10-10-10-10-10---10-9-|
|-7-7-7-7-7-7-7-7-7-7-|-10-10-10-10-10-10---10-10-10-10-10---10-9-|
|-7-7-7-7-7-7-7-7-7-7-|-10-10-10-10-10-10---10-10-10-10-10---10-9-|


  A5        Asus2       C5              F5        G5
  Gtr I
  E S E S E E S E S E    E  S  E.  S  E S   S S E S S
|---------------------|-------------------------------|
|---------------------|-------------------------------|
|-9-9-9-9-9-7-7-7-5-7-|--5--5--5---5--5-5---5-5-5-7---|
|-x-x-x-x-x-x-x-x-x-x-|--x--x--x---x--x-x---x-x-x-x---|
|-7-7-7-7-7-5-5-5-3-5-|--3--3--3---3--3-3---3-3-3-5---|
|---------------------|-------------------------------|
|
| Gtr II
|                                       PM------|
| E S E S E E S E S E    E  S  E.  S  E T T S S E S S
|---------------------|-------------------------------|
|---------------------|-------------------------------|
|---------------------|-------------------------------|
|-7-7-7-7-7-9-9-9-9-9-|-10-10-10--10-10-----------5---|
|-7-7-7-7-7-7-7-7-7-7-|-10-10-10--10-10-3-3-3-3-3-5---|
|-7-7-7-7-7-7-7-7-7-7-|-10-10-10--10-10-3-3-3-3-3-5---|


  A5        Asus2       F5                    G5  D5
  E S E S E E S E S E   E +S  S H.
|---------------------|-----------------------------||
|---------------------|-----------------------------||
|-9-9-9-9-9-7-7-7-7-7-|-7-(7)s9-5-------------------||
|-x-x-x-x-x-x-x-x-x-x-|-x-----x-x-------------------||
|-7-7-7-7-7-5-5-5-5-5-|-5-(5)s7-3-------------------||
|---------------------|-----------------------------||
|
|                                   PM----|
| E S E S E E S E S E   H           T T S S E S S S
|---------------------|-----------------------------||
|---------------------|-----------------------------||
|---------------------|-----------------------------||
|-7-7-7-7-7-9-9-9-9-9-|-3-------------------3-5---0-||
|-7-7-7-7-7-7-7-7-7-7-|-3-----------3-3-3-3-3-5---0-||
|-7-7-7-7-7-7-7-7-7-7-|-3-----------3-3-3-3-3-5---0-||


 Breakdown
  D5    N.C.        D5      N.C.
  Gtr I
   PM-|   PM        PM----|
                            |-3-|
   S  S S S S S S S S S S S S S S S  S
|--------------------------------------|
|--------------------------------------|
|--------------------------------------|
|-------5---7p5p0h7---------7h8p7------|
|--0--0-------------0-0-0-0-------8h10-|
|--0--0---0---------0-0-0-0------------|
|
| Gtr II
| +W
|--------------------------------------|
|--------------------------------------|
|--------------------------------------|
|-(0)----------------------------------|
|-(0)----------------------------------|
|-(0)----------------------------------|


  D5  N.C.
  PM|     PM   PM  PM  PM   PM   PM
  S S S   S  S S S S S S  S S  S S   S   +S
|----------------------------------------------|
|----------------------------------------------|
|--------------------9---10--------[12]-(12)\--|
|-----8----------8------------10---------------|
|-0-0-------10---------------------------------|
|-0-0-----0----0---0---0----0----0-------------|
|
| PM|
| S S H..
|----------------------------------------------|
|----------------------------------------------|
|----------------------------------------------|
|----------------------------------------------|
|-0-0------------------------------------------|
|-0-0------------------------------------------|


    D5  N.C.          D5      N.C.
    PM|     PM        PM----|
                               |-3--|
    S S  S  S S S S S S S S S  S  S S S  S
||-----------------------------------------|
||o----------------------------------------|
||-----------------------------------------|
||-------5----7p5p0h7----------7h=8p7------|
||o-0-0---------------0-0-0-0---------8h10-|
||--0-0-----0---------0-0-0-0--------------|
|
|   PM--------------------------------------
|   S S +Q.           S S S S +Q
||-----------------------------------------|
||o----------------------------------------|
||-----------------------------------------|
||-----------------------------------------|
||o-0-0-(0)-----------0-0-0-0-(0)----------|
||--0-0-(0)-----------0-0-0-0-(0)----------|


  D5  N.C.
  PM|   PM   PM  PM  PM   PM   PM  ~~~~~~~~
  S S S S  S S S S S S  S S  S S   S   +S   4x
|-------------------------------------------||
|------------------------------------------o||
|------------------9---10-------------------||
|-----8--------8------------10---[12]-(12)--||
|-0-0-----10-------------------------------o||
|-0-0---0----0---0---0----0----0------------||
|
|---|   PM   PM  PM  PM   PM   PM  ~~~~~~~~
| S S S S  S S S S S S  S S  S S   S   +S   4x
|-------------------------------------------||
|------------------------------------------o||
|------------------9---10-------------------||
|-----8--------8------------10---[12]-(12)--||
|-0-0-----10-------------------------------o||
|-0-0---0----0---0---0----0----0------------||


  D5
 6/8
  Gtrs I, II
  PM|    PM|      PM|    PM|      PM|    PM|      PM|    PM|
  S S Q  S S Q    S S Q  S S Q    S S Q  S S Q    S S Q  S S Q
|---------------|---------------|---------------|----------------|
|---------------|---------------|---------------|----------------|
|---------------|---------------|---------------|----------------|
|---------------|---------------|---------------|----------------|
|-0-0----0-0----|-0-0----0-0----|-0-0----0-0----|-0-0----0-0-----|
|-0-0----0-0----|-0-0----0-0----|-0-0----0-0----|-0-0----0-0-----|


    D5  N.C.          D5      N.C.
   4/4
    Gtr I
    PM|     PM        PM----|
                               |-3--|
    S S  S  S S S S S S S S S  S  S S S  S
||-----------------------------------------|
||o----------------------------------------|
||-----------------------------------------|
||-------5----7p5p0h7----------7h=8p7------|
||o-0-0---------------0-0-0-0---------8h10-|
||--0-0-----0---------0-0-0-0--------------|
|
|   Gtr II
|   PM--------------------------------------
|   S S +Q.           S S S S +Q
||-----------------------------------------|
||o----------------------------------------|
||-----------------------------------------|
||-----------------------------------------|
||o-0-0-(0)-----------0-0-0-0-(0)----------|
||--0-0-(0)-----------0-0-0-0-(0)----------|


  D5  N.C.
  PM|   PM   PM  PM  PM   PM   PM  ~~~~~~~~
  S S S S  S S S S S S  S S  S S   S   +S
|--------------------------------------------||
|-------------------------------------------o||
|------------------9---10--------------------||
|-----8--------8------------10---[12]-(12)---||
|-0-0-----10--------------------------------o||
|-0-0---0----0---0---0----0----0-------------||
|
|---|   PM   PM  PM  PM   PM   PM  ~~~~~~~~
| S S S S  S S S S S S  S S  S S   S   +S
|--------------------------------------------||
|-------------------------------------------o||
|------------------9---10--------------------||
|-----8--------8------------10---[12]-(12)---||
|-0-0-----10--------------------------------o||
|-0-0---0----0---0---0----0----0-------------||


 Outro
  D5
 6/8             12/8
  Gtrs I, II
  PM|    PM|      PM|    PM
  S S Q  S S Q    S S Q  S H.      S
|---------------|--------------------*|
|---------------|--------------------*|
|---------------|--------------------*|
|---------------|--------------------*|
|-0-0----0-0----|-0-0----0-----------*|
|-0-0----0-0----|-0-0----0-----------*|



Duration Legend
---------------
W - whole; H - half; Q - quarter; E - 8th; S - 16th; T - 32nd; X - 64th; a - acciaccatura
+ - note tied to previous; . - note dotted; .. - note double dotted
Uncapitalized letters represent notes that are staccato (1/2 duration)
Irregular groupings are notated above the duration line
Duration letters will always appear directly above the note/fret number it represents the
duration for.  Duration letters with no fret number below them represent rests.  Multi-
bar rests are notated in the form Wxn, where n is the number of bars to rest for.  Low
melody durations appear below the staff

Tablature Legend
----------------
 h   - hammer-on
 p   - pull-off
 b   - bend
 pb  - pre-bend
 r   - bend release (if no number after the r, then release immediately)
 /\  - slide into or out of (from/to "nowhere")
 s   - legato slide
 S   - shift slide
 - natural harmonic
[n]  - artificial harmonic
n(n) - tapped harmonic
 ~   - vibrato
 tr  - trill
 T   - tap
 TP  - trem. picking
 PM  - palm muting
\n/  - tremolo bar dip; n = amount to dip
 \n  - tremolo bar down
 n/  - tremolo bar up
/n\  - tremolo bar inverted dip
 =   - hold bend; also acts as connecting device for hammers/pulls
 <> - volume swell (louder/softer)
 x   - on rhythm slash represents muted slash
 o   - on rhythm slash represents single note slash

Misc Legend
-----------
 |  - bar
||  - double bar
||o - repeat start
o|| - repeat end
*|  - double bar (ending)
 :  - bar (freetime)
 $  - Segno
 &  - Coda
Tempo markers -  = BPM(8/16=s8/s16), where s8 = swing 8ths, s16 = swing 16ths


** Generated using Power Tab Editor by Brad Larsen: The Official Power Tab Web Site
Tap to rate this tab
# A B C D E F G H I J K L M N O P Q R S T U V W X Y Z