Song name
# A B C D E F G H I J K L M N O P Q R S T U V W X Y Z

Enemies - 4 Am tab

www.enemies.net
The Enemies
4 Am

Intro
|----------------------------------------------------
|----------------------------------------------------
|---------------------------------------6------3-----
|---8-x-x-x-x---------6-x-x-x-x---------6------3-----
|---8-x-x-x-x---------6-x-x-x-x---------4------1-----
|---6-x-x-x-x---------4-x-x-x-x----------------------

			(x2)
--------------------------------|------|
--------------------------------|------|
---------------------6------3---|--6---|
---6-x-x-x-x---------6------3---|--6---|
---6-x-x-x-x---------4------1---|--4---|
---4-x-x-x-x--------------------|------|

Verse
|----------------------------------------------------
|----------------------------------------------------
|---------------------------------------6------3-----
|---8-x-x-x-x---------6-x-x-x-x---------6------3-----
|---8-x-x-x-x---------6-x-x-x-x---------4------1-----
|---6-x-x-x-x---------4-x-x-x-x----------------------

			(x2)
--------------------------------|------|
--------------------------------|------|
---------------------6------3---|--6---|
---6-x-x-x-x---------6------3---|--6---|
---6-x-x-x-x---------4------1---|--4---|
---4-x-x-x-x--------------------|------|

Chorus    (x3)
|----------------------|--------------|
|----------------------|--------------|
|-----------------6----|--------6-----| 
|---8------6------6----|---8----6-----|
|---8------6------4----|---8----4-----|
|---6------4-----------|---6----------|

Verse 2
|----------------------------------------------------
|----------------------------------------------------
|---------------------------------------6------3-----
|---8-x-x-x-x---------6-x-x-x-x---------6------3-----
|---8-x-x-x-x---------6-x-x-x-x---------4------1-----
|---6-x-x-x-x---------4-x-x-x-x----------------------

			(x2)
--------------------------------|----------|
--------------------------------|----------|
---------------------6------3---|--3---6---|
---6-x-x-x-x---------6------3---|--3-~-6---|
---6-x-x-x-x---------4------1---|--1---4---|
---4-x-x-x-x--------------------|----------|

Outro
|-----------------------------------|
|-----------------------------------|
|-----------------6-----------6-----| 
|---8------6------6------8----6-----|
|---8------6------4------8----4-----|
|---6------4-------------6----------|

|-----------------------|
|-----------------------|
|-----------------6-----|
|---8------6------6--8--| (i don't know how many times)
|---8------6------4--8--|
|---6------4---------6--|


Order

Intro
Verse
Chorus
Verse (x4)
Chorus
Bridge (I haven't figure out yet)
Verse 2
Outro 

Ok... thats it, im just to fucking lazy to figure out the bridge. Always support 
The Enemies, they are a great band!!!!!. To download their song go to
www.enemies.net or www.lookoutrecords.com

If you don't like it.... FUCK IT!!!!
Tap to rate this tab
# A B C D E F G H I J K L M N O P Q R S T U V W X Y Z