Song name
# A B C D E F G H I J K L M N O P Q R S T U V W X Y Z

Enemy You - City Of Lost Children tab

Hello all, although that probably isn't that many of you... This is City of Lost 
Children by Enemy You... Good song, not that hard to figure out...Standard 
tuning... I'm not going to tell you the rhythm you can figure that out on your 
own...Please rate and comment... 
Enjoy!
(for Ultimate Tabs... the record label for Enemy You is Nitro Records... Wikipedia 
it if you want...)

Intro/Verse (repeated throughout song)
|------------------------|        After second time... 
|------------------------|        |----------------------|
|-----------7----7-6-4---|        |----------------------| and then go back
|-7----2----7----7-6-4-7-|        |----------------7-----| to the verse
|-7----2----5----5-4-2-7-|        |-7----2----4----7-----|
|-5----0---------------5-|        |-7----2----4----5-----|
                                  |-5----0----2----------|
                                                    

First Chorus                  End With
|---------------------|    |----------------|
|---------------------|    |----------------|
|------7---------7----|    |-7--6-4---------|
|-7----7----4----7----|    |-7--6-4-7-------|
|-7----5----4----5----|    |-5--4-2-7-------|
|-5---------2---------|    |--------5-------|

Repeat Verse

After palm mute part

|-----------------------------|----------------------------------------------|
|-----------------------------|----------------------------------------------|
|-----------14----14-13-11----|---------14----14-13-11--7---4--6--7--14-13-14|
|-7----2-------------------7--|-7---2----------------------------------------|
|-7----2----12----12-11-9--7--|-7---2---12----12-11-9---5---2--4--5--12-11-12|
|-5----0-------------------5--|-5---0----------------------------------------|

Second Chorus
|--------------------------|
|--------------------------|
|------7-------------------|
|-7----7----4----2---------|
|-7----5----4----2---------|
|-5---------2----0---------|

Solo
|----------------------------------------------------------------|
|----------------------------------------------------------------|
|----------------------------------------------------------------|
|-11-11-9-7-9-7--9/11-9--11-9-11/12-11-9--11-9-11-9-7--9/11-9----|
|----------------------------------------------------------------|
|----------------------------------------------------------------|

|--------------|
|--------------|
|--------------|
|----7----6----|
|-9------------|
|--------------|

Repeat First Chorus

Outro
|------------------------------------------|
|------------------------------------------|
|-14---16-14--13-14---14-18-16-14-13-14----|
|------------------------------------------|
|-12---14-12--11-12---12-16-14-12-11-12----|
|------------------------------------------|
Repeat twice



Tap to rate this tab
# A B C D E F G H I J K L M N O P Q R S T U V W X Y Z