Song name
# A B C D E F G H I J K L M N O P Q R S T U V W X Y Z

Enemy You - Automaton tab

----------------------------------------------------
              Enemy You - AUTOMATON
----------------------------------------------------

Tabbed By Shaun Amos
Listen to Song For Rhythm
> = listen for proper number of notes


Intro
e|---------|
B|---------|
G|---------|
D|-9>--7---|
A|-7>-55---|
E|----3----|

Verse
e|---------------------------|
B|---------------------------|
G|---------------------------|2
D|--9>--7-9>--7--9>-5>----7>-|X
A|--7>-55-7>-55--7>-3>-5>-5>-|
E|-----3-----3---------3>----|

Bridge
e|-----------------|
B|-----------------|
G|-----------------|
D|--5>-7>-9>-5>-7>-|
A|--3>-5>-7>-3>-5>-|
E|-----------------|

Chorus 2x
e|--------------|
B|--------------|
G|--------------|
D|--9>-5>----7>-|
A|--7>-3>-5>-5>-|
E|--------3>----|

[Intro]

[Verse]

[Chorus] 4x


Outro
e|-------------------| |------|
B|-------------------| |------|
G|-------------------|4|------|
D|-9>----4>-55557777-|X|-9979-|
A|-7>-5>-2>-33335555-| |-7757-|
E|----3>-------------| |------|
Tap to rate this tab
 
# A B C D E F G H I J K L M N O P Q R S T U V W X Y Z