Song name
# A B C D E F G H I J K L M N O P Q R S T U V W X Y Z

Enercia - Change tab

Hey People,

I didn't go into detail of the hand strum, so just listen to the song and you'll it.

tuning: (C G C F A D) 

Intro
   
D--------------------------------------------------------------------------|
A--(7)---------------------------------------------------------------------|
F--(7)-------5--------7--/---10-------------------------9---11--12---------|
C-------0----5--------5--/---8-----0--3---0--3----0------------------------|
G-------0----3--------5--/---8-----0--3---0--3----0-----7---9---10---------|
C-------0-------------5--/---8-----0--3---0--3----0-----0---0---0----------|

D--------------------------------------------------------------------------|
A--------------------------------------------------------------------------|
F-----12--12--12--12--12---12----8--8--8-/--10-/--12------5----------------|
C-----10--12--10--12--10---12----5--8--5-/--8--/--10------x----------------|
G-----10--10--10--10--10---10----5--5--5-/--8--/--10------3----------------|
C-----10--10--10--10--10---10----5--5--5-/--8--/--10------2----------------|



Verse 1

X2
D---------------------------------------------------------------------------|
A---------------------------------------------------------------------------|
F---7-------------------7------------------7------------12b--10--5---5---9--|
C---7----0--x-x--x------7--0---x--x--x-----7----0---x--------8-- 3---x---7--|
G---5----0--x-x--x------5--0---x--x--x-----5----0---x---10b--8---3---3---7--|
C--------0--x-x--x---------0---x--x--x----------0---x--------8---3---2---7--|
         ^   ^ ^  ^        ^     ^  ^  ^        ^      ^   ^

Pre Chorus

X2
D---------------------------------------------------------------------------|
A---------------------------------------------------------------------------|
F---------------------------------------------------------------------------|
C---------------------------------------------------------------------------|
G---------------------------------------------------------------------------|
C---55555555--88888888--1212121212121212---1010101010101010-----------------|
 
Gat 2
D---------------------------------------------------------------------------|
A---------------------------------------------------------------------------|
F--------(h)-----(h)--------(h)-------(h)------------(h)----------(h)-------|
C-------5-7-----5-7--------5-7-------5-7----------14-15--------14-15--------|
G---------------------------------------------------------------------------|
C---5555----5555--------8888-----8888-----12121212-----12121212-------------|


D---------------------------------------------------------------------------|
A---------------------------------------------------------------------------|
F------------(h)----------(h)-----------------------------------------------|
C---------13-12--------12-13------------------------------------------------|
G---------------------------------------------------------------------------|
C-10101010-----10101010-----------------------------------------------------|

Gat 2
D---------------------------------------------------------------------------|
A---------------------------------------------------------------------------|
F--------(h)-----(h)--------(h)-------(h)------------(h)----------(h)-------|
C-------5-7-----5-7--------5-7-------5-7----------14-15--------14-15--------|
G---------------------------------------------------------------------------|
C---5555----5555--------8888-----8888-----12121212-----12121212-------------|


D---------------------------------------------------------------------------|
A---------------------------------------------------------------------------|
F---------------------------------------------------------------------------|
C---------1313131313131313(12b)---------------------------------------------|
G---------------------------------------------------------------------------|
C-10101010------------------------------------------------------------------|


X2

Chorus
D---8------8----------------------------------------------------------------|
A---10-----6----------------------------------------------------------------|
F---10-----7-------12-11----12-11---17--------------------------------------|
C---8------5----------------------------------------------------------------|
G---8------5-------10-9-----10-9----15--------------------------------------|
C---8------5-------0--0-----0--0----0---------------------------------------|


Bridge

x2
D---------------------------------------------------------------------------|
A---------------------------------------------------------------------------|
F---14--12------15---14-----------------------------------------------------|
C--------------------------------------3333/8888--7\0--3333/8888--7\0-------|
G---12--10------13---12----------------3333/8888--7\0--3333/8888--7\0-------|
C--------------------------------------3333/8888--7\0--3333/8888--7\0-------|



x2
Chorus
D---------------------------------------------------------------------------|
A---------------------------------------------------------------------------|
F----------------------------------10-5--5--9999----------------------------|
C-3333/8888--7\0--3333/8888--7\0---8--3--x--7777----------------------------|
G-3333/8888--7\0--3333/8888--7\0---8--3--3--7777----------------------------|
C-3333/8888--7\0--3333/8888--7\0---8--3--2--7777----------------------------|

Gat 2
D---------------------------------------------------------------------------|
A---------------------------------------------------------------------------|
F---------------------------------------------------------------------------|
C---------------------------------------------------------------------------|
G---------------------------------------------------------------------------|
C--------7-0-0-00-0-8888-7-0-0-00-0-8888-7-0-0-00-0-8888-7-0-0-00-0---------|


Chorus
D---8------8----------------------------------------------------------------|
A---10-----6----------------------------------------------------------------|
F---10-----7----12-11----12-11---17-----------------------------------------|
C---8------5----------------------------------------------------------------|
G---8------5----10-9-----10-9----15-----------------------------------------|
C---8------5----0--0-----0--0----0------------------------------------------|


Chorus
D---8-----8---------------------------------------8--8--8---8---8--8---8--8-|
A---10----6---------------------------------------10-6--10--6---10-6---10-6-|
F---10----7---------------------------------------10-7--10--7---10-7---10-7-|
C---8-----5--00--00---00--00--00--00--00-00---10--8--5--8---5---8--5---8--5-|
G---8-----5--00--00---00--00--00--00--00-00---10--8--5--8---5---8--5---8--5-|
C---8-----5--00--00---00--00--00--00--00-00---10--8--5--8---5---8--5---8--5-|

Gat 2
x2
D---------------------------------------------------------------------------|
A-----------6-5------5---------------6-5----------5-6/7-6-5-6---------------|
F--------------7-5-7--7-5----------------7-5-7---7--------------------------|
C-------------------------8-7-5---------------------------------------------|
G---------------------------------------------------------------------------|
C---------------------------------------------------------------------------|

D---------------------------------------------------------------------------|
A-----------6-5------5---------------6-5----------5-6/7-6-5-----------------|
F--------------7-5-7--7-5----------------7-5-7---7-----------7--5-----------|
C-------------------------8-7-5---------------------------------------------|
G---------------------------------------------------------------------------|
C---------------------------------------------------------------------------|


D---------------------------------------------------------------------------|
A---------------------------------------------------------------------------|
F---------------------------------------------------------------------------|
C----3---2----0-------------------------------------------------------------|
G----3---2----0-------------------------------------------------------------|
C----3---2----0-------------------------------------------------------------|
 
www.enerciamusic.com



| /   Slide Up
| \   Slide Down
| h   Hammer-On
| p   Pull-Off
| ~   Vibrato
|( )  Harmonic
| x   Mute Note
| B   Bend
| pb  Pre-Bend
| br  Bend Release
| pbr Pre-Bend Release
Tap to rate this tab
# A B C D E F G H I J K L M N O P Q R S T U V W X Y Z