Song name
# A B C D E F G H I J K L M N O P Q R S T U V W X Y Z

Engel - Casket Closing tab

-----------------------------------------------------------------------------
			                            casket closing - Engel
-----------------------------------------------------------------------------
http://www.engelpropaganda.com
http://www.youtube.com/watch?v=eqhxktLDkT4

Tabbed by:alexguge
Email:jeghoppader@hotmail.com

Tuning:drop Bb

 C|--------------------------------------------------------------------------|
 G|--------------------------------------------------------------------------|
Eb|--------------------------------------------------------------------------|
Bb|--------------------------------------------------------------------------|
 F|--------------------------------------------------------------------------|
Bb|00-000-000-000-000-000-3-2-0-2-0-555-555-555-5-8-7-5-8-7-8\5-88-888-888---|
 xxx xxx xxx xxx xxx xxx           xxx xxx                     xx xxx xxx     

 C|--------------------------------------------------------------------------|
 G|--------------------------------------------------------------------------|
Eb|--------------------------------------------------------------------------|
Bb|---------8-7-5-10--10-10-10--0--10------5------8--------------------------|
 F|---------8-7-5-10--10-10-10--10-10----------------------------------------|
Bb|-888-888-8-7-5-10--10-10-10--10-10--4/5----5/8----13\-00------------------|
 xxx xxx           x  x  x   x x                      xx                      

 C|--------------------------------------------------------------------------|
 G|--------------------------------------------------------------------------|
Eb|---10-10-10-10-10-10-10-10-10-10-1-------15-15-15-15-15-15-15-15-15-15-15-|
Bb|------------------------------------5-5-----------------------------------|
 F|---8--8--8--8--8--8--8--8--8--8--8--5-5--13-13-13-13-13-13-13-13-13-13-13-|
Bb|-0-0----------------------------------5-5---------------------------------|
                                                                              
 C|--------------------------------------------------------------------------|
 G|--------------------------------------------------------------------------|
Eb|-------10-10-10-10-10-10-10-10-10-10-10--------7--7--7--7--7--7--7--7--7-7|
Bb|-8-8------------------------------------10-10-----------------------------|
 F|-8-8---8--8--8--8--8--8--8--8--8--8--8--10-10--5--5--5--5--5--5--5--5--5-5|
Bb|-8-8----------------------------------10-10-------------------------------|
                                                                              
 C|--------------------------------------------------------------------------|
 G|--------------------------------------------------------------------------|
Eb|--------------------------------------------------------------------------|
Bb|--------------------------------------------------------------------------|
 F|--------------------------------------------------------------------------|
Bb|--------5-0-3-0-8-0-7-0-1111----------------------------------------------|

 C|--------------------------------------------------------------------------|
 G|--------------------------------------------------------------------------|
EB|--------------------------------------------------------------------------|
Bb|--------------------------------------------------------------------------|
 F|--------------------------------------------------------------------------|
Bb|000-000-000-000-000-000-3-2-0-2-0-5^5^5--5^5^5--5^5^5--5^5^5-5^5^5-5^5^5--|
  xxx xxx xxx xxx xxx xxx                                                     

 C|--------------------------------------------------------------------------|
 G|--------------------------------------------------------------------------|
Eb|--------------------------------------------------------------------------|
Bb|--------------------------------------------------------------------------|
 F|--------------------------------------------------------------------------|
Bb|00--00-3-2-0-2-3-0--------------------------------------------------------|
   xx  xx x x x
 C|--------------------------------------------------------------------------|
 G|--------------------------------------------------------------------------|
Eb|--------------------------------------------------------------------------|
Bb|--------------------------------------------------------------------------|
 F|--------------------------------------------------------------------------|
Bb|-00-00-3-2-0-3-2-3--------------------------------------------------------|
 xx xx x x x   x

 C---------------------------------------------------------------------------|
 G---------------------------------------------------------------------------|
Eb---------------------------------------------------------------------------|
Bb---------------------------------------------------------------------------|
 F---------------------------------------------------------------------------|
Bb-0-0-0-0-0-0-0-0-3-2-0-2-3-0-----------------------------------------------|
 x x x x x x x x x x x

 C---------------------------------------------------------------------------|
 G---------------------------------------------------------------------------|
Eb---------------------------------------------------------------------------|
Bb-----------------10\7------------------------------------------------------|
 F-----------------10\7------------------------------------------------------|
Bb-0-0-0-0-0-0-0-0-10\7-0-3-0-0-3/5------------------------------------------|
 x x x x x x x x      x   x x

 C-------------------------|---------------|---------------------------------|
 G-------------------------|---------------|---------------------------------|
Eb-------------------------|---------------|---------------------------------|
Bb-------------------------|---------------|---------------------------------|
 F-------------------------|5-0-5-8-5------|-8-0-8-12-8----------------------|
Bb----------0-0-0-0-0-0-0-0|----------7-0-2|------------7-0-2----------------|
          x x x x x x x x guitar 1         guitar 2                           

 C|--------------------------------------------------------------------------|
 G|--------------------------------------------------------------------------|
Eb|--------------------------------------------------------------------------|
Bb|--------------------------------------------------------------------------|
 F|--------------------------------------------------------------------------|
Bb|-0-0-0-0-0-0-0-0-0h1-1-1-1-1-1-1------------------------------------------|
 x x x x x x x x     x x x x x x

 C|--------------------------------------------------------------------------|
 G|--------------------------------------------------------------------------|
Eb|--------------------------------------------------------------------------|
Bb|--0-----------------------------------------------------------------------|
 F|--0-----------------------------------------------------------------------|
Bb|--0-----------------------------------------------------------------------|
 

Tap to rate this tab
# A B C D E F G H I J K L M N O P Q R S T U V W X Y Z