Song name
# A B C D E F G H I J K L M N O P Q R S T U V W X Y Z

Engel - Fase tab

voor de Nederlandes (:

hoop dat t goed is (=



  Guitar1
e|-------0-2-------0---------| |-------2--------------------|
b|-----0-----------0-(strum)-| |-----3---3------------------|
g|---0-------------0---------| |---2-------2------0------0--|
d|-2---------------2---------| |-0--------------0------0----|
a|-------------2-3(3)--------| |----------------------------|
e|---------------------------| |--------------3----3-2------|

  *Strum,  [v] [v] ^  ^[v] [v] [v]^

   ^   = Up
  [v]  = Down


  Guitar2
e|------7---7---7---7---Fade-|
b|-8--8---8---8---8-----Out--|
g|-0-------------------------|
d|---------------------------|
a|---------------------------|
e|---------------------------|


Piano
e|--12--10-------------------------|--12--10--------12--15--12------|
b|----------12--------11--12-------|----------12----------------12--|
g|----------------11------------9--|--------------------------------|
d|---------------------------------|--------------------------------|
a|---------------------------------|--------------------------------|
e|---------------------------------|--------------------------------|

e|--12--10-------------------------|--14--12--10----17--15--------------14------12---|
b|----------12--------11--12---(8)-|--10--------------------17------15---------------|
g|----------------11------------9--|-(14)-----11----------------16-------------------|
d|---------------------------------|----------------------------------------14-------|
a|---------------------------------|-------------------------------------------------|
e|---------------------------------|-------------------------------------------------|

* or 
e|--12-- harmonic.




*Strum,  [v] [v] ^  ^[v] [v] [v]^

 ^   = Up
[v]  = Down


vragen?  mail naar  xbox-killer@hotmail.com  (:
Tap to rate this tab
# A B C D E F G H I J K L M N O P Q R S T U V W X Y Z