Song name
# A B C D E F G H I J K L M N O P Q R S T U V W X Y Z

Engel - Feed The Weak tab

-------------------------------------------------------------------------------
			     Feed the weak - Engel
-------------------------------------------------------------------------------
Tabbed by:Alexguge
Email:Jeghoppader@hotmail.com

Tuning:Drop Ab

Bb-------------------------------------------------------------------------------|
F--------------------------------------------------------------------------------|
Db-------------------------------------------------------------------------------|
Ab-------------------------------------------------------------------------------|
Eb-10h12-10h12-10-10-8h10-8-8-7h8-7-3--------------------------------------------|
Ab-------------------------------------------------------------------------------|


Bb-------------------------------------------------------------------------------|
F--------------------------------------------------------------------------------|
Db--------------------------------10h9---10h9-7----------------------------------|
Ab-------------------------------------0-----------------------------------------|
Eb-10h12-10h12-10-10-8h10-8-8-7h8------x-----------------------------------------|
Ab-------------------------------------------------------------------------------|


Bb--10--------------10-----13----------------------------------------------------|
F----10--10-11-------10------11--------------------------------------------------|
Db-------------------------------------------------------------------------------|
Ab-------------------------------------------------------------------------------|
Eb-------------------------------------------------------------------------------|
Ab-------------------------------------------------------------------------------|
   let ring

Bb-----------------10-----13----13-12----12--------------------------------------|
F-10----------------10------11-------11------------------------------------------|
Db----10--10-11------------------------------------------------------------------|
Ab-------------------------------------------------------------------------------|
Eb-------------------------------------------------------------------------------|
Ab-------------------------------------------------------------------------------|


Bb-------------------------------------------------------------------------------|
F--------------------------------------------------------------------------------|
Db-3---------5-------------------------------------------------------------------|
Ab-3---5--0--5-------------------------------------------------------------------|
Eb-1---5--0--3-------------------------------------------------------------------|
Ab-----5--0----------------------------------------------------------------------|


Bb--20b22-20b22\--20b22-20b22\--20b22-20b22\-------------------------------------|
F--------------------------------------------------------------------------------|
Db-------------------------------------------------------------------------------|
Ab-------------------------------------------------------------------------------|
Eb-------------------------------------------------------------------------------|
Ab-------------------------------------------------------------------------------|


Bb--------------------------------------17-15-13-15-13-12-13-12-10-12-10-17------|
F--15-13-15----15--18b21-15--15-13-15--------------------------------------------|
Db-----------14------------------------------------------------------------------|
Ab-------------------------------------------------------------------------------|
Eb-------------------------------------------------------------------------------|
Ab-------------------------------------------------------------------------------|


Bb----------------------------------17-15-13-15-13-12-13-12-10-12-10-17----------|
F-15-13-15----15-----------------------------------------------------------------|
Db----------14----12b13---15-13-15-----------------------------------------------|
Ab-------------------------------------------------------------------------------|
Eb-------------------------------------------------------------------------------|
Ab-------------------------------------------------------------------------------|
Tap to rate this tab
 
# A B C D E F G H I J K L M N O P Q R S T U V W X Y Z