Song name
# A B C D E F G H I J K L M N O P Q R S T U V W X Y Z

Engerica - Trick Or Treat tab

Engerica
There Are No Happy Endings
Track 8
Trick Or Treat

Tuning - EADGBE (low to high)

Author - Anthony Captain




Introduction
E|---------------------------------|
B|---------------------------------|
G|-4-4-4---7---4---3-3-3---7---9---|
D|---------------------------------|
A|-2-2-2---5---2---1-1-1---5---7---|
E|---------------------------------|

E|---------------------------------|
B|---------------------------------|
G|-4-4-4---7---4---3-3-3-1---------|
D|-------------------------4-4-4-4-|
A|-2-2-2---5---2---1-1-1-1---------|
E|-------------------------2-2-2-2-|


Verse
E|---------------------------------|
B|---------------------------------|
G|---------------------------------|
D|-9-9-9---9-9-9---9-9-9-9-9-9-9---|
A|---------------------------------|
E|-7-7-7---7-7-7---7-7-7-7-7-7-7---|


Verse
Variation
"its alright, its ok, its supposed to look this way"
E|---------------------------------|
B|---------------------------------|
G|-4-4-4---4-7-4---4-4-4-4-4-4-4---|
D|---------------------------------|
A|-2-2-2---2-5-2---2-2-2-2-2-2-2---|
E|---------------------------------|


Prechorus
E|---------------------------------|
B|---------------------------------|
G|---------------------------------|
D|---------------------------------|
A|-2-2-2-2-2-4-4-5-5-5-5-5-8---8---|
E|-0-0-0-0-0-2-2-3-3-3-3-3-6---6---|

E|---------------------------------|
B|---------------------------------|
G|-4-4-3-3-4-4-3-3-4-4-3-3-4-4-----|
D|---------------------------------|
A|-2-2-1-1-2-2-1-1-2-2-1-1-2-2-----|
E|---------------------------------|


Chorus
E|---------------------------------|
B|---------------------------------|
G|---------------------------------|
D|-4-4-4-4-------------------------|
A|-2-2-2-2-2-2-2-2-4-4-4-4-5-5-5-5-|
E|---------0-0-0-0-2-2-2-2-3-3-3-3-|

E|---------------------------------|
B|---------------------------------|
G|-4-4-4-4-------------------------|
D|---------------------------------|
A|-2-2-2-2-2-2-2-2-4-4-4-4-5-5-5-5-|
E|---------0-0-0-0-2-2-2-2-3-3-3-3-|


Fill
"Kick Him In The Face"
E|-----------------------------------------------------------------|
B|-----------------------------------------------------------------|
G|-----------------------------------------------------------------|
D|-4-4-4-4-4-------4-4-4-4-4-------4-4-4-4-4-4-4-4-4-4-4-4-4-------|
A|-2-2-2-2-2-------2-2-2-2-2-------2-2-2-2-2-2-2-2-2-2-2-2-2-------|
E|-----------------------------------------------------------------|


*
Random Noise Interlude
*


Build Up
E|-------------------------------------------------|
B|-------------------------------------------------|
G|-11-11-11-10-10-10-11-11-11-10-10-10-11-11-14-14-|
D|-------------------------------------------------|
A|- 9- 9- 9- 8- 8- 8- 9- 9- 9- 8- 8- 8- 9- 9-12-12-|
E|-------------------------------------------------|


Build Up 2
E|---------------------------------|
B|---------------------------------|
G|---------------------------------|
D|-4-4-4-3-3-3-4-4-4-3-3-3-4-4-7-7-|
A|-2-2-2-1-1-1-2-2-2-1-1-1-2-2-5-5-|
E|---------------------------------|


Interlude
E|-------------------------------------------------|
B|-------------------------------------------------|
G|-16-16-16-16-16-16-16-16-15-15-15-15-16-16-16----|
D|-------------------------------------------------|
A|-14-14-14-14-14-14-14-14-13-13-13-13-14-14-14----|
E|-------------------------------------------------|

E|-------------------------------------------------|
B|-------------------------------------------------|
G|-16-16-16-16-16-16-16-16-18-18-18-18-19b---19b---|
D|-------------------------------------------------|
A|-14-14-14-14-14-14-14-14-16-16-16-16-17b---17b---|
E|-------------------------------------------------|


End Chorus Variant
E|----------------------------------|
B|----------------------------------|
G|----------------------------------|
D|-4-4-4-4--------------------------|
A|-2-2-2-2-2-2-2-2-5-5-5-5-8-8-8b---|
E|---------0-0-0-0-3-3-3-3-6-6-6b---|


End Chord
E|-----------------|
B|-----------------|
G|-----------------|
D|-----------------|
A|-8~--------------|
E|-6~--------------|
Tap to rate this tab
 
# A B C D E F G H I J K L M N O P Q R S T U V W X Y Z