Song name
# A B C D E F G H I J K L M N O P Q R S T U V W X Y Z

Engerica - Roadkill tab

ARTIST: Engerica
TITLE: Roadkill
ALBUM: There Are No Happy Endings
TABBED BY: kryptonite22
TUNING: drop D

There's another tab of this song on here that's actually very good but misses out a 
of subtle notes (particularly in the intro/main riff) and gets a couple of chord changes 
so this version just adds to the good foundations laid down by Michael_D in the first tab
and hopefully improves upon it

INTRO (minimal distortion)
e|---------------------------------|
B|-----666---666---666-----101010--|
G|----7-----7-----7------10--------|
D|--555555555555555555/8888888888--|
A|--555555555555555555/8888888888--|
D|--555555555555555555/8888888888--|

e|-----------------------------|
B|-------666---666---666--10b--|
G|------7-----7-----7----------|
D|--8/555555555555555555-------|
A|--8/555555555555555555-------|
D|--8/555555555555555555-------|

Play same again but with tons of distortion

Verse is played mainly by bass (the 5s are played clean and faded in the background, but 
add the 8s after every line of vocals)
e|---------------|
B|---------------|
G|---------------|
D|--5->----8888--|
A|--5->----8888--|
D|--5->----8888--|

CHORUS
e|-----------------------------------------------|
B|------------------------------------101010-----|
G|----------------------------------10-----------|
D|--1111/333--1111/333--1111/333--8888888888-----|
A|--1111/333--1111/333--1111/333--8888888888-----|
D|--1111/333--1111/333--1111/333--8888888888-----|

Then play the main/intro RIFF

The next verse is played by bass apart from the 8s at the end, as before.

CHORUS again

"Shake your finger" part - the 3 is basically achieved by holding your finger gently 
that D string, and the rest of the strings you're just sort of scratching
e|------x-x-x-x-x-x---------|
B|------x-x-x-x-x-x---------|
G|------x-x-x-x-x-x---------|
D|--5---x-x-x-x-x-x----555--|
A|--5---x-x-x-x-x-x----555--|
D|--5---3*3*3*3*3*3*---555--|

Main riff again

Chorus riff again

Ends with
e|---------------------------------------------------|
B|---------------------------------------------------|
G|---------------------------------------------------|
D|--55555555/666--55555555/666--55555555/666--5------|
A|--55555555/666--55555555/666--55555555/666--5------|
D|--55555555/666--55555555/666--55555555/666--5------|
Tap to rate this tab
# A B C D E F G H I J K L M N O P Q R S T U V W X Y Z