Song name
# A B C D E F G H I J K L M N O P Q R S T U V W X Y Z

Engerica - Did You Hear What Sylvia Said tab

Engerica
There Are No Happy Endings
Track 11
Did You Hear What Slyvia Said

Tuning - DADGBE (low to high)

Author - Anthony Captain


E|---------------------------------|
B|---------------------------------|
G|---------------------------------|
D|-6-5-5-5-5-5-5-5-0-1-1-1-1-1-1-1-|
A|-6-5-5-5-5-5-5-5-0-1-1-1-1-1-1-1-|
D|-6-5-5-5-5-5-5-5-0-1-1-1-1-1-1-1-|
       * * * * * *     * * * * * *

E|---------------------------------|
B|---------------------------------|
G|---------------------------------|
D|-6-5-5-5-6-5-5-5-0-1-1-1-0-1-1-1-|
A|-6-5-5-5-6-5-5-5-0-1-1-1-0-1-1-1-|
D|-6-5-5-5-6-5-5-5-0-1-1-1-0-1-1-1-|
       * *     * *     * *     * *

E|-----------------/-----/-|
B|-----------------/-----/-|
G|-----------------/-----/-|
D|-0-1-1-1-0-1-1-1-/-1-1-/-|
A|-0-1-1-1-0-1-1-1-/-1-1-/-|
D|-0-1-1-1-0-1-1-1-/-1-1-/-| extra measure end of verse 1

E|-------------------------------------------------|
B|-------------------------------------------------|
G|-----0-----0-------------------------------------|
D|---3---------5-----------------------------------|
A|-1-----3~----5-----------------------------------|
D|-------------5-----------------------------------|

E|-----------------------------------------|
B|-----------------------------------------|
G|-----0-----0-----0-----0-----------------|
D|---3-----5-----2-----3---5---------------|
A|-1-----3-----0-----1-----5---------------|
D|-------------------------5---------------|

E|-----------------------------------------|
B|-----------------------------------------|
G|-----------------------------------------|
D|-3-3-3-5-5-5-2-2-2-3-3-3-5---------------|
A|-1-1-1-3-3-3-0-0-0-1-1-1-5---------------|
D|-------------------------5---------------|

E|---------------------------------|
B|---------------------------------|
G|---------------------------------|
D|-6-5-5-5-5-5-5-5-0-1-1-1-1-111-1-|
A|-6-5-5-5-5-5-5-5-0-1-1-1-1-111-1-|
D|-6-5-5-5-5-5-5-5-0-1-1-1-1-111-1-|
       * * * * * *     * * * *** *

E|---------------------------------|
B|---------------------------------|
G|---------------------------------|
D|-6-5-5-5-5-555-5-0-1-1-1-1-111-1-|
A|-6-5-5-5-5-555-5-0-1-1-1-1-111-1-|
D|-6-5-5-5-5-555-5-0-1-1-1-1-111-1-|
     * * * * *** *     * * * *** *

E|-------------------------------------|
B|-------------------------------------|
G|-------------------------------------|
D|-6-5-5-5-5-5-5-5-0-1-1-1-0-1-1-1-1-1-|
A|-6-5-5-5-5-5-5-5-0-1-1-1-0-1-1-1-1-1-|
D|-6-5-5-5-5-5-5-5-0-1-1-1-0-1-1-1-1-1-|

E|-----------------------------------------|
B|-----------------------------------------|
G|-------------------------7---7---7h8h7---|
D|-3-3-3-5-5-5-2-2-2-3-3-3-----------------|
A|-1-1-1-3-3-3-0-0-0-1-1-1-5---5-----------|
D|-----------------------------------------|

E|---------------------------------|
B|---------------------------------|
G|-7-7-7-7-7-7-7-7-6-6-6-6-3-3-3-3-|
D|---------------------------------|
A|-5-5-5-5-5-5-5-5-4-4-4-4-1-1-1-1-|
D|---------------------------------|

E|---------------------------------|
B|---------------------------------|
G|---------------------------------|
D|-8-8-8-8-8-8-8-8-7-7-7-7-6-6-6-6-|
A|-8-8-8-8-8-8-8-8-7-7-7-7-6-6-6-6-|
D|-8-8-8-8-8-8-8-8-7-7-7-7-6-6-6-6-|

E|-----------------|
B|-----------------|
G|(7)7)7)7)7)7)7)7)| (ghost notes)
D|-5-5-5-5-5-5-5-5-|
A|-5-5-5-5-5-5-5-5-| played over and over gently (clean tone)
D|-5-5-5-5-5-5-5-5-|

Random Noise using octaves on 'A' and 'g' strings

E|---------------------------------|
B|---------------------------------|
G|---------7-7-7-7-6-6-6-6-3-3-3-3-|
D|-5-5-5-5-------------------------|
A|-5-5-5-5-5-5-5-5-4-4-4-4-1-1-1-1-|
D|-5-5-5-5-------------------------|

E|---------------------------------|
B|---------------------------------|
G|---------------------------------|
D|-8-8-8-8-8-8-8-8-7-7-7-7-6-6-6-6-|
A|-8-8-8-8-8-8-8-8-7-7-7-7-6-6-6-6-|
D|-8-8-8-8-8-8-8-8-7-7-7-7-6-6-6-6-|

E|---------------------------------|
B|---------------------------------|
G|---------------------------------|
D|-5-x-xxx-5-x-xxx-5-x-xxx-5-x-xxx-|
A|-5-x-xxx-5-x-xxx-5-x-xxx-5-x-xxx-|
D|-5-x-xxx-5-x-xxx-5-x-xxx-5-x-xxx-|

E|-------------------------------------------------|
B|-------x-x-x-------------------------------------|
G|-12----x-x-x-14-x--x--x--15----x--x--18-x---18b~-|
D|-------x-x-x----x--x--x--------x--x-----x--------|
A|-10----x-x-x-12-x--x--x--13----x--x--16-x---16b~-|
D|-------------------------------------------------|

E|-------------------------------------------------|
B|-------------------------------------------------|
G|-12-12-12-12-14-14-14-14-15-15-15-15-18-18-18-18-|
D|-------------------------------------------------|
A|-10-10-10-10-12-12-12-12-13-13-13-13-16-16-16-16-|
D|-------------------------------------------------|

E|-------------------------------------------------|
B|-------------------------------------------------|
G|-121212141414151515181818121212141414151515181818|
D|-------------------------------------------------|
A|-101010121212131313151515101010121212131313151515|
D|-------------------------------------------------|

E|-------------------------------------------------|
B|-------------------------------------------------|
G|-15-15-15-15-15-15-15-15-14-14-14-14-12-12-12-12-|
D|-------------------------------------------------|
A|-13-13-13-13-13-13-13-13-12-12-12-12-10-10-10-10-|
D|-------------------------------------------------|

E|---------|
B|---------|
G|---------|
D|-8/---/0-|
A|-8/---/0-|
D|-8/---/0-|
Tap to rate this tab
 
# A B C D E F G H I J K L M N O P Q R S T U V W X Y Z