Song name
# A B C D E F G H I J K L M N O P Q R S T U V W X Y Z

Engerica - It Was A Goddam Suicide tab

It Was A Goddam Suicide!- Engerica

E--------------------|
B--------------------|
G--------------------|
D-----7--999---------| Verse
A-----7--999---------|
E-----5--777---------|

E------------------|
B------------------|
G----11-10---------| Riff Dave plays during
D------------------| the verse
A------------------|
E------------------|

E-------------------------|
B-------------------------|
G-------------------------|
D---99999999999999--------| 1stchorus
A---99999999999999--------|
E---77777777777777--------|

E----------------------------------------|
B----------------------------------------|
G-------------------777------------------|
D---999999999999----777-9999999999-------| 2nd chorus
A---999999999999----555-9999999999-------|
E---777777777777--------7777777777-------|

E---------------------------------------------------|
B---------------------------------------------------|
G-7-9--1010-10-10-10-10-12-13-13-13-13-13-13-13-13--|
D-7-9--1010-10-10-10-10-12-13-13-13-13-13-13-13-13--|
A-5-7--8-8--8--8--8--8--10-11-11-11-11-11-11-11-11--|
E---------------------------------------------------|
 AND I FORGOT TO SAY


E
B--------------------------------------------|
G--------------------------------------------|
D----999999999999999999999-------------------|
A----999999999999999999999-------------------|
E----777777777777777777777-------------------|
SHUT UP YOUR MAKING ME SICK.......
E--------------------------------------------------------|
B--------------------------------------------------------|
G------1111-1010-----1111-10-10--------------1111-10-10--|
D--99--1111-1010-99--1111-10-10-999--11-1212-1111-10-10--|
A--99--9-9--8-8--99--9-9--8--8--999--11-1212-9-9--8--8---|
E--77------------77-------------777--9--1010-------------|
                                         ****
E------------------------------|
B------------------------------|
G------1111-1010---------------|
D1212--1111-1010-121212-11-99--|
A1212--9-9--8-8--121212-11-99--|
E1010------------101010-9--77--|   **** repeat solo until you reach the
                                       D chord then reapeat d chord
Tap to rate this tab
# A B C D E F G H I J K L M N O P Q R S T U V W X Y Z