Song name
# A B C D E F G H I J K L M N O P Q R S T U V W X Y Z

Enjambre - Maleable tab

Aqui traego la tab de esta canción que me
agrado bastante, tendrá notas de más o
notas de menos, ya que la saqué a oido 
pero de igual forma se escucha bien (: 
aqui esta mi cover para que vean como se escucha. 
Tabs 100% por Alexgm15 < En youtube    Alex1595< En ultimate guitar
Espero que les guste.

Cover:  http://www.youtube.com/watch?v=7xfudmSMz90

h:hammer
p:pull off
/:slide

Nota: No incluye todos los movimientos que yo hago, 
esos los pueden deducir al escuchar la canción, los 
que yo pongo son para distinguir un poco esa parte.


Intro

|------------|------------|------------|--------------------------|
|------------|------------|------------|--------------------------|
|----5-3--x4-|----7-5--x4-|----8-7--x4-|-8-10-11-11-10-8-8-10-11--|
|--3---------|--5---------|--7---------|--------------------------|
|------------|------------|------------|--------------------------|
|------------|------------|------------|--------------------------|

Verso

|----------------------------------------------------------------------|
|----------------------------------------------------------------------|
|-3-3-3-3-3-3-3-3-3-3-3-3-4-4-4-4-4-4/-8-8-8-8-8-8-8-8/-10-10-10-10-10-|
|-3-3-3-3-4-4-4-4-5-5-5-5-5-5-5-5-5-5/-8-8-8-8-7-7-7-7/-10-10-10-10-10-|
|----------------------------------------------------------------------|
|----------------------------------------------------------------------|
No son muecas es falta de letras....
|----------------------------------------------------------5-----------|
|--------------------------------------/11-8-/12-8-6-6-6-6-6-----------|
|-3-3-3-3-3-3-3-3-3-3-3-3-4-4-4-4-4-4----------------------------------|
|-3-3-3-3-4-4-4-4-5-5-5-5-5-5-5-5-5-5----------------------------------|
|----------------------------------------------------------------------|
|----------------------------------------------------------------------|
Por mis nervios, razones...

Coro

|--------------------------------------------|
|-------6-----------8---------------13-12-11-|
|-7-5/7---7-5-4-4/8---8-7-6-7-8-12-----------|
|--------------------------------------------|
|--------------------------------------------|
|--------------------------------------------|
La encontré, en el lugar....      haber buscado...

|-------------------------------------------------------| ***
|-------6-----------8---------------13-11-13......13-11-|
|-7-5/7---7-5-4-4/8---8-7-6-7-8-12----------------------|
|-------------------------------------------------------|
|-------------------------------------------------------|
|-------------------------------------------------------|
La encontré sabiendo que...  si no la hubiera encontrado...

Solo

|-------------10-------------------------------------------13-10---------|
|-11-10-11-13----13-11-13/15-15-15--15-13-11-10h11p10------------13-12---|
|-----------------------------------------------------12---------------12|
|------------------------------------------------------------------------|
|------------------------------------------------------------------------|
|------------------------------------------------------------------------|

|-15-13--------------------10--------------------|
|-------16-15-13--10-11-13----13-11-10-11-14-----|
|------------------------------------------------|
|------------------------------------------------|
|------------------------------------------------|
|------------------------------------------------|


Verso

|----------------------------------------------------------------------|
|----------------------------------------------------------------------|
|-3-3-3-3-3-3-3-3-3-3-3-3-4-4-4-4-4-4/-8-8-8-8-8-8-8-8/-10-10-10-10-10-|
|-3-3-3-3-4-4-4-4-5-5-5-5-5-5-5-5-5-5/-8-8-8-8-7-7-7-7/-10-10-10-10-10-|
|----------------------------------------------------------------------|
|----------------------------------------------------------------------|
Mi faz manifiesta el estracto....
|----------------------------------------------------------5-----------|
|--------------------------------------/11-8-/12-8-6-6-6-6-6-----------|
|-3-3-3-3-3-3-3-3-3-3-3-3-4-4-4-4-4-4----------------------------------|
|-3-3-3-3-4-4-4-4-5-5-5-5-5-5-5-5-5-5----------------------------------|
|----------------------------------------------------------------------|
|----------------------------------------------------------------------|
Y como araño esa guitarra...


|------------|------------|------------|--------------------------------|
|------------|------------|------------|--------------------------------|
|----5-3--x4-|----7-5--x4-|----8-7--x4-|-8-10-11-11-10-8-8-10-11-11-10-8|
|--3---------|--5---------|--7---------|--------------------------------|
|------------|------------|------------|--------------------------------|
|------------|------------|------------|--------------------------------|
                                       Me apuntan con el dedo..dicen me creo

       
Coro

|--------------------------------------------|
|-------6-----------8---------------13-12-11-|
|-7-5/7---7-5-4-4/8---8-7-6-7-8-12-----------|
|--------------------------------------------|
|--------------------------------------------|
|--------------------------------------------|
La encontré, en el lugar....      haber buscado...

|------------------------------------------| 
|----------6-----------8--------------15-13|
|-7-7/12-7---7-5-4-4/8---8-7-6-7-8-12------|
|------------------------------------------|
|------------------------------------------|
|------------------------------------------|
La encontré sabiendo que...hubiera encontrado

|-------------10-8-9/10-8------------------------10-8--------------------|
|----10-----8-------------10-8-10----13-11-----8------11-10-8------------|
|-10----7-8-----------------------10---------8----------------10-8-7-5-7-|
|------------------------------------------------------------------------|
|------------------------------------------------------------------------|
|------------------------------------------------------------------------|
Pues un rostro indefinido...                                ...más mande




*** En esta parte que puse puntos suspensivos 
las notas en el traste 13 de la segunda cuerda 
son tantas veces sea necesario para que quede con la canción.
Tap to rate this tab
 
# A B C D E F G H I J K L M N O P Q R S T U V W X Y Z