Song name
# A B C D E F G H I J K L M N O P Q R S T U V W X Y Z

Enjambre - El Beso Del Payaso tab

fergto78
--## Tablatura de mi versión para El beso del payaso de Enjambre,
por Fernando Arroyo, checa mi
cover, para mayor referencia de la tab, en youtube,
http://youtu.be/j6NE8-PaSm8
además, podrás bajar los backing tracks para practicar :)

Afinación estándar

Intro y verso 01

GUITARRA 02 (TAB GUITARRA 01 ESTA AL FINAL)

|-----------|
|-----------|
|.---------.|4 tiempos
|.---------.|
|-----------|
|--0-6-7-8--|

|--------|
|--------|
|--------|
|--------|
|--------|
|--0-6-7-|

|-----------|
|-----------|
|.---------.|6 tiempos
|.---------.|
|-----------|
|--0-6-7-8--|

Puente 

  A5  B5
|------------------------------|
|------------------------------|
|.----------------------------.|
|.----------------------------.|2 tiempos
|--7---9-----------------------|
|--5---7---0---6-7-8-0---6-7-8-|

  A5  B5   C5   D#5
|-------------------|
|-------------------|
|---------------8---|
|---------------6---|
|--7---9---10-------|
|--5---7---8--------|

Coro

  E5  C5  B5 C5   A5    C5  B5 C5           
|----------------------------------|
|----------------------------------|
|.--------------------------------.|
|.-9------------------------------.|5 tiempos
|--7---10--9--10---7----10--9--10--|
|------8---7--8----5----8---7--8---|

  E5  C5  B5 C5   A5   A#5 B5           
|----------------------------|
|----------------------------|
|----------------------------|
|-9--------------------------|
|-7---10--9--10---7----8---9-|
|-----8---7--8----5----6---7-|

Puente al verso
   * Armónico natural
|--------------------|
|--------------------|
|--------------------|
|--------------------|
|--------------------|
|-(12)~~~~~~~~~~~~~~~|

Verso 02
|-----------|
|-----------|
|.---------.|2 tiempos
|.---------.|
|-----------|
|--0-6-7-8--|

|--------|
|--------|
|--------|
|--------|
|--------|
|--0-6-7-|

|-----------|
|-----------|
|.---------.|6 tiempos
|.---------.|
|-----------|
|--0-6-7-8--|

Puente 
  A5  B5
|------------------------------|
|------------------------------|
|.----------------------------.|
|.----------------------------.|2 tiempos
|--7---9-----------------------|
|--5---7---0---6-7-8-0---6-7-8-|
  A5  B5   C5   D#5
|-------------------|
|-------------------|
|---------------8---|
|---------------6---|
|--7---9---10-------|
|--5---7---8--------|

Coro

  E5  C5  B5 C5   A5    C5  B5 C5           
|----------------------------------|
|----------------------------------|
|.--------------------------------.|
|.-9------------------------------.|5 tiempos
|--7---10--9--10---7----10--9--10--|
|------8---7--8----5----8---7--8---|

  E5  C5  B5 C5   A5   A#5 B5           
|----------------------------|
|----------------------------|
|----------------------------|
|-9--------------------------|
|-7---10--9--10---7----8---9-|
|-----8---7--8----5----6---7-|

Outro

   E5          A5    D#5
|-----------------------|
|-----------------------|
|.---------------------.|
|.-9---------/-14--/-8/.|5 tiempos
|--7---------/-12--/-6/-|
|-----------------------|

  E5           B5
|-----------------------|
|-----------------------|
|-----------------------|
|-9---------------------|
|-7------------9~~~~~~--|
|--------------7~~~~~~--|

--------------------------------------

GUITARRA 01

Intro y verso 01

   * Armónico natural con “volume swell”
|-(12)~~~~~~~~~~~~~~~|
|-(12)~~~~~~~~~~~~~~~|
|-(12)~~~~~~~~~~~~~~~|
|--------------------|
|--------------------|
|--------------------|

|----------------------------|
|----------------------------|
|.--------------------------.|
|.-----5-----5-----4------7-.|2 tiempos
|----7-----7-----6------9----|
|--0-----6-----7-----/8------|

|---------------|
|---------------|
|---------------|
|-----5-----5---|
|---7-----7-----|
|-0-----6-----7-|

    Em
|---7--7---|
|---8--8---|
|.--9--9--.|24 tiempos
|.--9--9--.|
|---7--7---|
|----------|

Puente 
 
   Am   B7   Em
|--5----7----7--7------7--7---|
|--5----7----8--8------8--8---|
|.-5----8----9--9------9--9--.|2 tiempos
|.-7----7----9--9------9--9--.|
|--7----9----7--7------7--7---|
|--5----7---------------------|

  Am   B7   C7   D#5 
|-5----7----8--------|
|-5----7----8--------|
|-5----8----9----8---|
|-7----7----8----8---|
|-7----9----10---6---|
|-5----7----8--------|

Coro

  E5  C5  B5 C5   A5    C5  B5 C5           
|----------------------------------|
|----------------------------------|
|.--------------------------------.|
|.-9------------------------------.|5 tiempos
|--7---10--9--10---7----10--9--10--|
|------8---7--8----5----8---7--8---|

  E5  C5  B5 C5   A5   A#5 B5           
|----------------------------|
|----------------------------|
|----------------------------|
|-9--------------------------|
|-7---10--9--10---7----8---9-|
|-----8---7--8----5----6---7-|

Puente al verso 
(la parte 01 y 02 se tocan al mismo tiempo)
Parte 01
    Em
|---7--7---|
|---8--8---|
|.--9--9--.|4 tiempos
|.--9--9--.|
|---7--7---|
|----------|

|--7--7----7------7----7-|
|--8--8------8----8----8-|
|--9--9-----------9----9-|
|--9--9--------9-------9-|
|--7--7----------------7-|
|------------------------|
Parte 02
|--------------------------|
|--------------------------|
|--------------------------|
|-----5-----5-----4------7-|
|---7-----7-----6------9---|
|-0-----6-----7-----/8-----|

|--------------------------------|
|--------------------------------|
|--------------------------------|
|-----5-----5-----4------7-------|
|---7-----7-----6------9---9---9-|
|-0-----6-----7-----/8-------8---|

Verso 02

|-------------------(2 tiempos)---------------------|
|---------------------------------------------------|
|.-------------------------------------------------.|
|.----5-----------5-----------4------------7-------.|
|---7---7---7---7---7---7---6---6---6----9---9---9--|
|-0-------0---6-------6---7-------7---/8-------8----|

|---------------------------|
|---------------------------|
|---------------------------|
|-----5-----------5---------|
|---7---7---7---7---7---7---|
|-0-------0---6-------6---7-|

Verso 02

    Em
|---7--7---|
|---8--8---|
|.--9--9--.|24 tiempos
|.--9--9--.|
|---7--7---|
|----------|
Puente 
 
   Am   B7   Em
|--5----7----7--7------7--7---|
|--5----7----8--8------8--8---|
|.-5----8----9--9------9--9--.|2 tiempos
|.-7----7----9--9------9--9--.|
|--7----9----7--7------7--7---|
|--5----7---------------------|

  Am   B7   C7   D#5 
|-5----7----8--------|
|-5----7----8--------|
|-5----8----9----8---|
|-7----7----8----8---|
|-7----9----10---6---|
|-5----7----8--------|

Coro

  E5  C5  B5 C5   A5    C5  B5 C5           
|----------------------------------|
|----------------------------------|
|.--------------------------------.|
|.-9------------------------------.|5 tiempos
|--7---10--9--10---7----10--9--10--|
|------8---7--8----5----8---7--8---|

  E5  C5  B5 C5   A5   A#5 B5           
|----------------------------|
|----------------------------|
|----------------------------|
|-9--------------------------|
|-7---10--9--10---7----8---9-|
|-----8---7--8----5----6---7-|

Outro 

   Em      A5     D#m
|--7--------------6---|
|--8-------10-----7---|
|.-9-------9------8--.|5 tiempos
|.-9-------7------8--.|
|--7-------7------6---|
|---------------------|

   Em      B5      Em
|--7---------------15~~~|
|--8-------12------17~~~|
|--9-------11------16~~~|
|--9-------9------------|
|--7-------9------------|
|-----------------------|
Tap to rate this tab
# A B C D E F G H I J K L M N O P Q R S T U V W X Y Z