Song name
# A B C D E F G H I J K L M N O P Q R S T U V W X Y Z

Enjambre - Falacia tab

fergto78
--## Tablatura de mi versión para Falacia de Enjambre,
por Fernando Arroyo, checa mi
cover, para mayor referencia de la tab, en youtube,
http://youtu.be/IU3Mou0ZZDc
además, podrás bajar los backing tracks para practicar :)
Afinación estándar
------------------------------------------
Intro

Guitarra 01
(LA TAB DE LA GUITARRA 02 ESTA AL FINAL)

|-13p12-----------------|
|----------15--15~~~~~~.|
|.------14-----14~~~~~~.|2 tiempos
|.----------------------|
|-----------------------|
|-----------------------|

|----------------------------------|
|-17p15----15-17----15-17----15-17-|
|-------17-------17-------17-------|
|----------------------------------|
|----------------------------------|
|----------------------------------|

|----------------15~~----------------|
|-14-15-17-14------------------------|
|-------------14---------------------|
|---------------------15-14-14-15-17-|
|------------------------------------|
|------------------------------------|

|----------------------------------------|
|----------------------------------------|
|----14----------------------17----------|
|-14----17-15-14-14-15-17-14----18-17-15/|
|----------------------------------------|
|----------------------------------------|

|----------------------------------------|
|----------------------------------------|
|9-10-12---------------------------------|
|--------9-10-12-------------10----12/7~~|
|----------------10-12-13-10----12-------|
|----------------------------------------|

Verso 1
Verso 2

|----------------------------------------|
|-------10-10-10-10-10-10-10-------------|
|.-10/9-10-10-10-10-10-10-10-------------|
|.---------------------------------------|| 2 tiempos
|----------------------------------------|
|----------------------------------------|
|-----|-----(2 tiempos)-------|----------|
|-----|-----------------------|----------|
|-9/7-|.9--9--9--9--9--9--9--.|-9--9-/---|
|-----|.10-10-10-10-10-10-10-.|-10-10/---|
|-----|-----------------------|----------|
|-----|-----------------------|----------|

Puente al Coro

|-7-7-----------------------------------------|
|-8-8-8-8-13-13-14-14-15-15-14-14-15-15-15-15-|
|-----9-9-14-14-14-14-14-14-14-14-12-12-12-12/|
|---------------------------------------------|
|---------------------------------------------|
|---------------------------------------------|

Coro

|7---7------------12----12--15~~~-12----12-----|
|--8-------8/(13)----13--------------13--------|
|------9-9---------------------------------13~~|
|----------------------------------------------|
|----------------------------------------------|
|----------------------------------------------|

|-------------12-------13-------13-|
|-------13----------15-------14----|
|-12-14----14----14-------14-------|
|----------------------------------|
|----------------------------------|
|----------------------------------|

|----------|-15--------|
|----12----|----12-----|
|-12----12-|.------12-.|3 tiempos
|----------|.---------.|
|----------|-----------|
|----------|-----------|

Solo

|---------------------------------|
|---------------------------------|
|-7~~9~~10~~12~~14~~~14-12-10-9-7-|
|---------------------------------|
|---------------------------------|
|---------------------------------|

|---------------------------------|
|---------------------------------|
|-9-9-9p7----7-------------7------|
|---------10---10--10-9-10---9-10-|
|---------------------------------|
|---------------------------------|

|----------------------------------------|
|----------------------------------------|
|-9-10-10-10p9----9--------------9-------|
|--------------12---12--12-10-12---10-12-|
|----------------------------------------|
|----------------------------------------|

       Verso 03
|----------------------------------------|
|----------------------------------------|
|-10-------------------------------------|
|----12/7~~~~~~~~~~~~12/6~~~~~~~~~~~~~~~~|
|----------------------------------------|
|----------------------------------------|

|-------------------------------------------------|
|-------------------------------------------------|
|-------------------------------------------------|
|-10-10-12-12-14-14-14-14-11-11-12-12-14-14-14-14-|
|-------------------------------------------------|
|-------------------------------------------------|
Palm mute. . . . . . . . . . . . . . . . . . . .

Verso 04

|-----------------------------|
|-------10-10-10-10-10-10-10--|
|.-10/9-10-10-10-10-10-10-10-.|
|.---------------------------.| 2 tiempos
|-----------------------------|
|-----------------------------|

|-----------------------------|
|-----------------------------|
|-9/7-9--9--9--9--9--9--9--9--|
|-----10-10-10-10-10-10-10-10-|
|-----------------------------|
|-----------------------------|

|-----------------------------|
|-----------------------------|
|-9----9-10----10-12--10-9~~~/|
|---10------12----------------|
|-----------------------------|
|-----------------------------|

Puente al Coro

|-7-7-----------------------------------------|
|-8-8-8-8-13-13-14-14-15-15-14-14-15-15-15-15-|
|-----9-9-14-14-14-14-14-14-14-14-12-12-12-12/|
|---------------------------------------------|
|---------------------------------------------|
|---------------------------------------------|

Coro

|7---7------------12----12--15~~~-12----12-----|
|--8-------8/(13)----13--------------13--------|
|------9-9---------------------------------13~~|
|----------------------------------------------|
|----------------------------------------------|
|----------------------------------------------|

|----------12-------------13-------13-|
|-------13----13-12----15-------14----|
|-12-14-------------14-------14-------|
|-------------------------------------|
|-------------------------------------|
|-------------------------------------|

|----------|-15--------|
|----12----|----12-----|
|-12----12-|.------12-.|3 tiempos
|----------|.---------.|
|----------|-----------|
|----------|-----------|

|7---7------------12----12--15~~~-12----12-----|
|--8-------8/(13)----13--------------13--------|
|------9-9---------------------------------13~~|
|----------------------------------------------|
|----------------------------------------------|
|----------------------------------------------|

|----------12----12-------13-------13-|
|-------13----13-------15-------14----|
|-12-14-------------14-------14-------|
|-------------------------------------|
|-------------------------------------|
|-------------------------------------|

Outro

|----------15-------15-------|
|----12-------12-------12----|
|-12----12-------12-------12-|
|----------------------------|
|----------------------------|
|----------------------------|

|----------13-------13-------|
|----12-------12-------12----|
|-12----12-------12-------12-|
|----------------------------|
|----------------------------|
|----------------------------|

|----------12-------12-------|
|----12-------12-------12----|
|-12----12-------12-------12-|
|----------------------------|
|----------------------------|
|----------------------------|

|----------13-12-------------|
|-15-12-13-------15--13~~~~~~|
|--------------------12~~~~~~|
|----------------------------|
|----------------------------|
|----------------------------|

------------------------------------------
Intro

Guitarra 02

        Dmno5                Db5
|-------------------------------------------|
|-------------------------------------------|
|.------------------------------------------|
|.-3-2---3-3-3-3-3-3-3--3-2---6-6-6-6-6-6-6-|
|------5-5-5-5-5-5-5-5------5-5-5-5-5-5-5-5-|
|-------------------------------------------|
        Cno5                 C#mno5
-------------------------------------------|
-------------------------------------------|
------------------------------------------.|2 tiempos
-2-0---2-2-2-2-2-2-2--2-0---2-2-2-2-2-2-2-.|
-----3-3-3-3-3-3-3-3------4-4-4-4-4-4-4-4--|
-------------------------------------------|

Verso 01

        Dmno5                Db5
|------------------------------------------|
|------------------------------------------|
|------------------------------------------|
|-3-2---3-3-3-3-3-3-3--3-2---6-6-6-6-6-6-6-|
|-----5-5-5-5-5-5-5-5------5-5-5-5-5-5-5-5-|
|------------------------------------------|
        PM . . . . . .        . . . . . . .
      Cno5                 C#mno5
------------------------------------------|
------------------------------------------|
------------------------------------------|
-2-0---2-2-2-2-2-2-2--2-0---2-2-2-2-2-2-2-|
-----3-3-3-3-3-3-3-3------4-4-4-4-4-4-4-4-|
------------------------------------------|
      PM . . . . . .        . . . . . . .

Verso 02

        Dmno5                Db5
|------------------------------------------|
|------------------------------------------|
|------------------------------------------|
|-3-2---3-3-3-3-3-3-3--3-2---6-6-6-6-6-6-6-|
|-----5-5-5-5-5-5-5-5------5-5-5-5-5-5-5-5-|
|------------------------------------------|

      Cno5           C       C/G
-------------------------------------------|
-------------------------------------------|
------------------------------9--9--9--9---|
-2-0---2-2-2-2-2-2-2-/5-5-5-5-10-10-10-10--|
-----3-3-3-3-3-3-3-3-/7-7-7-7-10-10-10-10--|
---------------------/8-8-8-8--------------|

Puente al Coro

   Cno5                Gno5
|-------------------------------------------|
|-------------------------------------------|
|.----9----9----9----9---------12---12---12-|
|.-10---10---10---10------9-------9----9----|
|----------------------10---10--------------|
|-------------------------------------------|
 Amno5                   Ano5
-------------------------------------------------|
-------------------------------------------------|
----------------------------------14----14----14-|
----10----10----10----10----11-------11----11----|
-12----12----12----12----12----12----------------|
-------------------------------------------------|
 Dmno5                   C#no5
-------------------------------------------------|
-------------------------------------------------|
----10----10----10----10----10----10----10----10-|
-12----12----12----12----11----11----11----11----|
-------------------------------------------------|
-------------------------------------------------|
 Gno5
---------------------------------------|
---------------------------------------|
---------0---0---0---0---12---12---12--|
----9------9---9---9---9----9----9----.|2 tiempos
-10---10------------------------------.|
---------------------------------------|

Solo
  Db5
|-------------------------|
|-------------------------|
|-------------------------|
|-6-6-6-6-6-6-6-6-6-6-6-6-|
|-5-5-5-5-5-5-5-5-5-5-5-5-|
|-------------------------|
      Cno5                 C#mno5
------------------------------------------|
------------------------------------------|
------------------------------------------|
-2-0---2-2-2-2-2-2-2--2-0---2-2-2-2-2-2-2-|
-----3-3-3-3-3-3-3-3------4-4-4-4-4-4-4-4-|
------------------------------------------|

Verso 03

        Dmno5                Db5
|------------------------------------------|
|------------------------------------------|
|------------------------------------------|
|-3-2---3-3-3-3-3-3-3--3-2---6-6-6-6-6-6-6-|
|-----5-5-5-5-5-5-5-5------5-5-5-5-5-5-5-5-|
|------------------------------------------|
        PM . . . . . .        . . . . . . .
      Cno5                 C#mno5
------------------------------------------|
------------------------------------------|
------------------------------------------|
-2-0---2-2-2-2-2-2-2--2-0---2-2-2-2-2-2-2-|
-----3-3-3-3-3-3-3-3------4-4-4-4-4-4-4-4-|
------------------------------------------|
      PM . . . . . .        . . . . . . .

Verso 04

        Dmno5                Db5
|------------------------------------------|
|------------------------------------------|
|------------------------------------------|
|-3-2---3-3-3-3-3-3-3--3-2---6-6-6-6-6-6-6-|
|-----5-5-5-5-5-5-5-5------5-5-5-5-5-5-5-5-|
|------------------------------------------|

      Cno5            Emno5   Gno5
-------------------------------------------|
-------------------------------------------|
-------------------------------------------|
-2-0---2-2-2-2-2-2-2-/5-5-5-5-9--9--9--9---|
-----3-3-3-3-3-3-3-3-/7-7-7-7-10-10-10-10--|
---------------------/0-0-0----------------|

Puente al Coro

   Cno5                Gno5
|-------------------------------------------|
|-------------------------------------------|
|.----9----9----9----9---------12---12---12-|
|.-10---10---10---10------9-------9----9----|
|----------------------10---10--------------|
|-------------------------------------------|

 Amno5                   Ano5
-------------------------------------------------|
-------------------------------------------------|
----------------------------------14----14----14-|
----10----10----10----10----11-------11----11----|
-12----12----12----12----12----12----------------|
-------------------------------------------------|
 Dmno5                   C#no5
-------------------------------------------------|
-------------------------------------------------|
----10----10----10----10----10----10----10----10-|
-12----12----12----12----11----11----11----11----|
-------------------------------------------------|
-------------------------------------------------|
 Gno5
---------------------------------------|
---------------------------------------|
---------0---0---0---0---12---12---12--|
----9------9---9---9---9----9----9----.|2 tiempos
-10---10------------------------------.|
---------------------------------------|

   Cno5                Gno5
|---------------------------------------|
|---------------------------------------|
|-9---9---9---9-------------------------|
|-10--10--10--10-------9---9---9---9----|
|----------------------10--10--10--10---|
|---------------------------------------|

 Amno5                   Ano5
------------------------------------------|
------------------------------------------|
------------------------------------------|
-10--10--10--10----------11--11--11--11---|
-12--12--12--12----------12--12--12--12---|
------------------------------------------|

 Dmno5                   C#no5
------------------------------------------|
------------------------------------------|
-10--10--10--10----------10--10--10--10---|
-12--12--12--12----------11--11--11--11---|
------------------------------------------|
------------------------------------------|

Outro

 Gno5                Fno5
------------------------------------|
------------------------------------|
------------------------------------|
-9---9---9---9---9---7--7--7--7--7--|
-10--10--10--10--10--8--8--8--8--8--|
------------------------------------|

 Emno5            Dmno5
-----------------------------------|
-----------------------------------|
-----------------------------------|
-5--5--5--5--5----3--3--3--3--3----|
-7--7--7--7--7----5--5--5--5--5----|
-----------------------------------|

 Cno5
-----------|
-----------|
-----------|
-2~~~~~~~~~|
-3~~~~~~~~~|
-----------|
Tap to rate this tab
 
# A B C D E F G H I J K L M N O P Q R S T U V W X Y Z