Song name
# A B C D E F G H I J K L M N O P Q R S T U V W X Y Z

Enjambre - Este Invierno tab

fergto78
--## Tablatura de mi versión para Este Invierno de Enjambre,
por Fernando Arroyo, checa mi
cover, para mayor referencia de la tab, en youtube,
http://youtu.be/DBuPjPsF5vI
además, podrás bajar los backing tracks para practicar :)

Afinación estándar

Intro
       Bm
|----------2-2-2-2-2-2-2-2--|
|------3-3-3-3-3-3-3-3-3-3--|
|.-----4-4-----------------.|3 tiempos
|.-------------------------.|
|----2----------------------|
|--2------------------------|
PM . . . . . . . . . . . . .

    Bm          G     F#
|---------2-2-2-----------|
|-----3-3-3-3-3---3-3---2-|
|-----4-4---------4-4---3-|
|-------------------------|
|---2---------------------|
|-2-------------3-----2---|
PM . . . . . . . . . . . .

Verso 01
     Bm                                  G     F#
|----------2-2-2-2-2-2-2-2---------2-2-2------------|
|------3-3-3-3-3-3-3-3-3-3-----3-3-3-3-3---3-3---2--|
|.-----4-4---------------------4-4---------4-4---3-.|2 tiempos
|.-------------------------------------------------.|
|----2-----------------------2----------------------|
|--2-----------------------2-------------3-----2----|
PM . . . . . . . . . . . . . . . . . . . . . . . . .

Puente al verso
   B  D# E  G  F#
|-----------3--2--|
|--4--8--9--3--2--|
|.-4--8--9--4--3-.|2 tiempos
|.-4--8--9--5--4-.|
|--2--6--7--5--4--|
|-----------3--2--|

  Bm    Em  A
|-2-----0---0---|
|-3-----0---2---|
|-4-----0---2---|
|-4-----2---2---|
|-2-----2---0---|
|-------0-------|

Verso 02

  D         Bm          G           Gm
|-----2-----------4-----------3-----------3-----|
|-----3---------3-3---------3-3---3-----3-3---3-|
|-------------4-----------4-----4-----3-----3---|
|-0---------------------------------------------|
|-------0-0-2-------2-2-------------------------|
|-----------------------3-----------3-----------|

   D           Bm          G           Gm
|--------2-----------4-----------3-----------3------|
|------3-3---------3-3---------3-3---3-----3-3---3--|
|.---2-----------4-----------4-----4-----3-----3---.|3 tiempos 
|.-0-----------------------------------------------.|
|----------0-0-2-------2-2--------------------------|
|--------------------------3-----------3------------|

 Fin de verso
  D
|-2~~~~~~~|
|-3~~~~~~~|
|-2~~~~~~~|
|-0~~~~~~~|
|---------|
|---------|

Verso 03
Entra al tercer tiempo
  D           Bm          G           Gm
|-------2-----------4-----------3-----------3-----|
|-----3-3---------3-3---------3-3---3-----3-3---3-|
|---2-----------4-----------4-----4-----3-----3---| 
|-0-----------------------------------------------|
|---------0-0-2-------2-2-------------------------|
|-------------------------3-----------3-----------|

  D           Bm          G           Gm
|-------2-----------4-----------3-----3~~|
|-----3-3---------3-3---------3-3---3-3~~|
|---2-----------4-----------4-----4---3~~| 
|-0-----------------------------------5~~|
|---------0-0-2-------2-2-------------5~~|
|-------------------------3-----------3~~|

Solo (guitarra 2 igual al verso)

|-----------------------------------------------------------|
|-10-10-10-10-10-10-/-14-14-14-14-14-14-/-12-12-12-12-12-12-|
|-11-11-11-11-11-11-/-14-14-14-14-14-14-/-12-12-12-12-12-12-|
|-----------------------------------------------------------|
|-----------------------------------------------------------|
|-----------------------------------------------------------|

|---------------------|
|-11-11-11-11-11-11---|
|-12-12-12-9--9--12---|
|---------------------|
|---------------------|
|---------------------|

|-----------------------------------------------------------|
|-10-10-10-10-10-10-/-14-14-14-14-14-14-/-12-12-12-12-12-12-|
|-11-11-11-11-11-11-/-14-14-14-14-14-14-/-12-12-12-12-12-12-|
|-----------------------------------------------------------|
|-----------------------------------------------------------|
|-----------------------------------------------------------|

|---------------------|
|-11-11-11-11-11-11---|
|-12-12-12-9--9--12---|
|---------------------|
|---------------------|
|---------------------|

|-------------------------------------------------------|
|-10-10-10-10-10-10-/-7-7-7-7-7-7-/-12-12-12-12-12-12-/-|
|-11-11-11-11-11-11-/-7-7-7-7-7-7-/-12-12-12-12-12-12-/-|
|-------------------------------------------------------|
|-------------------------------------------------------|
|-------------------------------------------------------|

|--------------------|
|-14-14-14-14-14-14--|
|-14-14-14-14-14-14--|
|--------------------|
|--------------------|
|--------------------|

Puente a verso

       Bm
|----------2-2-2-2-2-2-2-2--|
|------3-3-3-3-3-3-3-3-3-3--|
|.-----4-4-----------------.|3 tiempos
|.-------------------------.|
|----2----------------------|
|--2------------------------|
PM . . . . . . . . . . . . .

    Bm           Em    A
|---------2-2-2--0-----0--|
|-----3-3-3-3-3--0-----2--|
|-----4-4--------0-----2--|
|----------------2-----2--|
|---2------------2-----0--|
|-2--------------0--------|
PM . . . . . . .

Verso 04

Solo final (guitarra 2 igual al verso)

|-----------------------------5-/-3--|
|-----------------------------7-/-5--|
|--6--7--4~~~6--7--4~~~~/6/4---------|
|------------------------------------|
|------------------------------------|
|------------------------------------|

|-------------------------------------------------|
|-------------------------------------------0--0--|
|---------------------------4-------------4--4----|
|---------4-5-7-------4-5-7---------4-5-7---------|
|-4-4-5-7-------5-5-7---------4-5-7---------------|
|-------------------------------------------------|

|-----------|
|-----------|
|-/11~~9~~--|
|-----------|
|-----------|
|-----------|

|-----------------------------------------------------------|
|-10-10-10-10-10-10-/-14-14-14-14-14-14-/-12-12-12-12-12-12-|
|-11-11-11-11-11-11-/-14-14-14-14-14-14-/-12-12-12-12-12-12-|
|-----------------------------------------------------------|
|-----------------------------------------------------------|
|-----------------------------------------------------------|

|---------------------|
|-11-11-11-11-11-11---|
|-12-12-12-9--9--12---|
|---------------------|
|---------------------|
|---------------------|

|-----------------------------------------------------------|
|-10-10-10-10-10-10-/-14-14-14-14-14-14-/-12-12-12-12-12-12-|
|-11-11-11-11-11-11-/-14-14-14-14-14-14-/-12-12-12-12-12-12-|
|-----------------------------------------------------------|
|-----------------------------------------------------------|
|-----------------------------------------------------------|

|--------------|
|-12~~~~~8~~~~~|
|-12~~~~~9~~~~~|
|--------------|
|--------------|
|--------------|

Outro

       D
|------2~~~~~~~~|
|-0-2--3~~~~~~~~|
|-0-1--2~~~~~~~~|
|---------------|
|---------------|
|---------------|
Tap to rate this tab
# A B C D E F G H I J K L M N O P Q R S T U V W X Y Z