Song name
# A B C D E F G H I J K L M N O P Q R S T U V W X Y Z

Enjambre - Elemento tab

fergto78
--## Tablatura de mi versión para Elemento de Enjambre,
por Fernando Arroyo, checa mi
cover, para mayor referencia de la tab, en youtube,
http://youtu.be/WEyfBsTWZEM
además, podrás bajar los backing tracks para practicar :)

Afinación estándar

Intro
Con Ebow 
|-------------------------------------|
|-------------------------------------|
|-------------------------------------|
|--5---12---2---9---5---14---17---21--|
|-------------------------------------|
|-------------------------------------|

Verso 

  Em7         Ddim7
|-7--7----------------------|
|-8----8------------6-------|
|-7------7--------4---4-----|
|-9--------9----6-------6---|
|-7-----------5-----------5-|
|---------------------------|

   C          Am
|-----------------------|
|-----------------------|
|.-9--9--9~~~~5-5-5~~~~.|2 tiempos
|.-10-10-10~~~7-7-7~~~~.|
|-----------------------|
|-----------------------|

  C          Am
|----------------------|
|----------------------|
|-12-12-12~~~~5-5-5~~~~|
|-14-14-14~~~~7-7-7~~~~|
|----------------------|
|----------------------|

  Em7         Ddim7
|-7--7----------------------|
|-8----8------------6-------|
|-7------7--------4---4-----|
|-9--------9----6-------6---|
|-7-----------5-----------5-|
|---------------------------|

Coro

   F               G
|---------------------------------------------
|---------------------------------------------
|.--------------------------------------------
|.--------------------------------------------
|--8-8-8-8-8-8-8-8-10-10-10-10-10-10-10-10-10-
|---------------------------------------------
PM . . . . . . . . . . . . . . . . . . . . . .

 Em              A  
---------------------------------|
---------------------------------|
--------------------------------.|2 tiempos
--------------------------------.|
-7-7-7-7-7-7-7-7-4-4-4-4-5-5-7-7-|
---------------------------------|
. . . . . . . . . . . . . . . . .

   F               G
|---------------------------------------------|
|---------------------------------------------|
|---------------------------------------------|
|---------------------------------------------|
|--8-8-8-8-8-8-8-8-10-10-10-10-10-10-10-10-10-|
|---------------------------------------------|
PM . . . . . . . . . . . . . . . . . . . . . .

Puente 1

Con Ebow 
|-------------------|
|-------------------|
|-------------------|
|-21---17---14---5--|
|-------------------|
|-------------------|

Verso

   C          Am
|-----------------------|
|-----------------------|
|.-9--9--9~~~~5-5-5~~~~.|2 tiempos
|.-10-10-10~~~7-7-7~~~~.|
|-----------------------|
|-----------------------|

  C          Am
|----------------------|
|----------------------|
|-12-12-12~~~~5-5-5~~~~|
|-14-14-14~~~~7-7-7~~~~|
|----------------------|
|----------------------|

  Em7         Ddim7
|-7--7----------------------|
|-8----8------------6-------|
|-7------7--------4---4-----|
|-9--------9----6-------6---|
|-7-----------5-----------5-|
|---------------------------|

Coro

   F               G
|---------------------------------------------
|---------------------------------------------
|.--------------------------------------------
|.--------------------------------------------
|--8-8-8-8-8-8-8-8-10-10-10-10-10-10-10-10-10-
|---------------------------------------------
PM . . . . . . . . . . . . . . . . . . . . . .

 Em              A  
---------------------------------|
---------------------------------|
--------------------------------.|2 tiempos
--------------------------------.|
-7-7-7-7-7-7-7-7-4-4-4-4-5-5-7-7-|
---------------------------------|
. . . . . . . . . . . . . . . . .

   F               G
|---------------------------------------------|
|---------------------------------------------|
|---------------------------------------------|
|---------------------------------------------|
|--8-8-8-8-8-8-8-8-10-10-10-10-10-10-10-10-10-|
|---------------------------------------------|
PM . . . . . . . . . . . . . . . . . . . . . .

Puente 2

|----------7-8----7------------7---/12------|
|--------8-----10---8------8-----8-----13---|
|.--9-----------------9------9-------------.|3 tiempos
|.----10----------------10-----------------.|
|-------------------------------------------|
|-------------------------------------------|

|---------7-8----7----/12----12----15----19----|
|-------8-----10---8------13----13----17----20-|
|--9-------------------------------------------|
|----10----------------------------------------|
|----------------------------------------------|
|----------------------------------------------|

Coro

   F               G
|---------------------------------------------
|---------------------------------------------
|.--------------------------------------------
|.--------------------------------------------
|--8-8-8-8-8-8-8-8-10-10-10-10-10-10-10-10-10-
|---------------------------------------------
PM . . . . . . . . . . . . . . . . . . . . . .

 Em              A  
---------------------------------|
---------------------------------|
--------------------------------.|3 tiempos
--------------------------------.|
-7-7-7-7-7-7-7-7-4-4-4-4-5-5-7-7-|
---------------------------------|
. . . . . . . . . . . . . . . . .

   F               G
|---------------------------------------------|
|---------------------------------------------|
|---------------------------------------------|
|---------------------------------------------|
|--8-8-8-8-8-8-8-8-10-10-10-10-10-10-10-10-10-|
|---------------------------------------------|
PM . . . . . . . . . . . . . . . . . . . . . .

Outro

   C          Am
|-----------------------|
|-----------------------|
|.-9--9--9~~~~5-5-5~~~~.|2 tiempos
|.-10-10-10~~~7-7-7~~~~.|
|-----------------------|
|-----------------------|

  C          Am
|----------------------|
|----------------------|
|-12-12-12~~~~5-5-5~~~~|
|-14-14-14~~~~7-7-7~~~~|
|----------------------|
|----------------------|

  Em7         Ddim7
|-7--7----------------------|
|-8----8------------6-------|
|-7------7--------4---4-----|
|-9--------9----6-------6---|
|-7-----------5-----------5-|
|---------------------------|

   C
|-----------|
|--8~~~~~~~~|
|--9~~~~~~~~|
|--10~~~~~~~|
|-----------|
|-----------|
Tap to rate this tab
 
# A B C D E F G H I J K L M N O P Q R S T U V W X Y Z