Song name
# A B C D E F G H I J K L M N O P Q R S T U V W X Y Z

Ennio Morricone - For A Few Dollars More tab

Artist:Ennio Morricone
Title:For A Few Dollars More

#----------------------------------PLEASE NOTE-------------------------------
#This guitar tab is the author's own work and represents their interpretation of the #
#song. You may only use this file for private study, scholarship, or research.       #
#----------------------------------------------------------------------------


1st part:

----------------------|----------------------|----------------------------|--|
-----------------10---|-----------------10---|-----------------------13---|--|
----7-7-7-9-7-10------|----7-7-7-9-7-10------|-----10-10-10-12-10-14------|--|
-10-------------------|-10-------------------|--10------------------------|--|
----------------------|----------------------|----------------------------|--|
----------------------|----------------------|----------------------------|--|


---------------------------------------|------------------------------------|
-10-------------10---------------------|------------------------------------|
----10-7---7-10------10-7-------7-10---|-12-------10-9-7--------------------|
--------------------------8---8--------|------------------------------------|
---------------------------------------|------------------------------------|
---------------------------------------|------------------------------------|

2nd Part:
--------------------|--------------------|------------------------------------|
--------------------|--------------------|-------------------10---------------|
----7-7-7-9-7-------|----7-7-7-9-7-------|----7-7-7-9-7-10------12-10-12---12-|
-10-----------------|-10-----------------|-10---------------------------------|
--------------------|--------------------|------------------------------------|
--------------------|--------------------|------------------------------------|


--|--------------------------------------------------------------------------|
--|--------------------------------------------------------------------------|
--|-10-9-7-9-----------------------------------------------------------------|
--|----------10-7------------------------------------------------------------|
--|--------------------------------------------------------------------------|
--|--------------------------------------------------------------------------|

After this the 1st verse repeats with some variations. listen to the recording
Tap to rate this tab
# A B C D E F G H I J K L M N O P Q R S T U V W X Y Z