Song name
# A B C D E F G H I J K L M N O P Q R S T U V W X Y Z

Ennio Morricone - Once Upon A Time In America - Childhood Poverty tab

Once Upon A Time in America (Childhood Poverty)

---------------|-------------8-12-11---10-9----8-|
----7-10-8-7-8-|----7-8-10-7---------7------10---|
--9------------|--9------------------------------|
9--------------|9--------------------------------|
---------------|---------------------------------|
---------------|---------------------------------|


------7-8-10-8------|--------------------|---------|
-7-10----------10-7-|---7-8-7------------|-----7---|
--------------------|-9--------9-6-8-9-8-|---9-----|
--------------------|--------------------|-9-------|
--------------------|--------------------|---------|
--------------------|--------------------|---------|


----------|-------------8-12-11---10-9----8-|---------|
-10-8-7-8-|----7-8-10-7---------7------10---|--7-8-10-|
----------|--9------------------------------|---------|
----------|9--------------------------------|---------|
----------|---------------------------------|---------|
----------|---------------------------------|---------|

-7-9-11-14-12----12-11-10-9-8-|---------------------|
--------------12--------------|-7--5--8--7--5--7--9-|
------------------------------|---------------------|
------------------------------|---------------------|
------------------------------|---------------------|
------------------------------|---------------------|


Somebody else had tabbed this but it was done upside-down - This is it corrected.

Dagon.
Tap to rate this tab
 
# A B C D E F G H I J K L M N O P Q R S T U V W X Y Z