Song name
# A B C D E F G H I J K L M N O P Q R S T U V W X Y Z

Ennio Morricone - Cinema Paradiso Love Theme tab

I did this by ear; hope it sounds right.

|--------------------------------------------------------------------|
|-----------------------------------------3--3-------6-4-------------|
|-3-----3-2-0-2-5---------------2-5-3-2-3----------------------------|
|---0-1-----------3-1-1-0---0-3--------------------------------------|
|----------------------------------------------5-4-5-----------------|
|--------------------------------------------------------------------|




|--3-1-1-------------------------------------------------------------|
|1-------4-3-1-------1-----------------------------------------------|
|--------------3---3---3-2---0-2-3-2---------------------------------|
|--------------------------3-----------------------------------------|
|--------------------------------------------------------------------|
|--------------------------------------------------------------------|
Tap to rate this tab
# A B C D E F G H I J K L M N O P Q R S T U V W X Y Z