Song name
# A B C D E F G H I J K L M N O P Q R S T U V W X Y Z

Ennio Morricone - The Good The Bad And The Ugly tab

e|-------------------------------------------------------------------------|
B|-------------------------------------------------------------------------|
G|--------------------6~----------------------------------6~---------------|
D|----------8---------------------------------8----------------------------|
A|------6--------9-----------------------6-------9-------------------------|
E|--6--------------------------------6-------------------------------------|

e|-------------------------------------------------------------------6~----|
B|------------------------------6~------------------9~---------------------|
G|--------------------6------------------------6---------------------------|
D|----------8---------------8----------------------------------------------|
A|------6--------9---------------------------------------------------------|
E|--6----------------------------------------------------------------------|

e|---------4--------------------4---------------4----------------4---------|
B|-7-6-4----------4----7--6--4------4---7-6-4-----4--------7-6-4---------4-|
G|-------------------------------------------------------------------------|
D|-------------------------------------------------------------------------|
A|-------------------------------------------------------------------------|
E|-------------------------------------------------------------------------|

e|-------------------------------------------------------------------------|
B|-7-6-4h6-6---------------------------------------------------------------|
G|---------------6-8-6-5h6-6-----------------------------------------------|
D|--------------------------------8-10-8-6h8-8-----------------------------|
A|--------------------------------------------------9-11-9-8-9-------------|
E|---------------------------------------------------------------11-9~-10~-|

| /  slide up
| \  slide down
| h  hammer-on
| p  pull-off
| ~  vibrato
| +  harmonic
| x  Mute note
Tap to rate this tab
# A B C D E F G H I J K L M N O P Q R S T U V W X Y Z