Song name
# A B C D E F G H I J K L M N O P Q R S T U V W X Y Z

Ennio Morricone - Larena tab

-------------------------------------------------------------------------------
                     L'Arena (From "Il Mercenario")- Ennio Morocone
					   From: KILL BILL VOL.2
-------------------------------------------------------------------------------
Tabbed by: Shane Zavaglia (jano915)

KILL BILL VOL.2
*This is the song that's played when the Bride is buried alive in a coffin and has 
to her training with Pai Mei.*

NOTICE: I have only tabbed the actual guitar part to this song thus far.  I promise I 
finish everything up when I can. Thanks - Jano

Tuning:Standard

Guitar comes in at 2:03

e|---------------------------------------------------------------------------|
B|---------------------------------------------------------------------------|
G|---------------------------------------------------------------------------|
D|---------------------------------------------------------------------------|
A|----4-4-4---5-4-4-0-2-----------4-4-4---5-4-4-0-2--------------------------|
E|---------------------------------------------------------------------------|

e|---------------------------------------------------------------------------|
B|---------------------------------------------------------------------------|
G|---------------------------------------------------------------------------|
D|---------------------------------------------------------------------------|
A|----7-7-7--9-7-7-4-4----2-4-------------4-4-4---5-4-4-0-0-----2-4-0--------|
E|---------------------------------------------------------------------------|

At 2:33 when the horns join the guitar, I think Part 2 has a subtle change. If you don't 
continue playing like above.

Part 1
e|---------------------------------------------------------------------------|
B|---------------------------------------------------------------------------|
G|---------------------------------------------------------------------------|
D|---------------------------------------------------------------------------|
A|----4-4-4---5-4-4-0-2-----------4-4-4---5-4-4-0-2--------------------------|
E|---------------------------------------------------------------------------|

e|---------------------------------------------------------------------------|
B|---------------------------------------------------------------------------|
G|---------------------------------------------------------------------------|
D|---------------------------------------------------------------------------|
A|----7-7-7--9-7-7-4-4----2-0-------------4-4-4---5-4-4-0-0-----2-4-0--------|
E|---------------------------------------------------------------------------|

That's the entire guitar part for the song.  Simple and fun to play along with.
Tap to rate this tab
 
# A B C D E F G H I J K L M N O P Q R S T U V W X Y Z