Song name
# A B C D E F G H I J K L M N O P Q R S T U V W X Y Z

Ennio Morricone - The Ecstasy Of Gold tab

-------------------------------------------------------------------------------
     The Ecstasy Of Gold- Ennio Morricone
-------------------------------------------------------------------------------

Tuning: Standard

Repeat Ad Lib
e|-------------------------------------------------------------------------|
B|--0--1--------0--1--------0--1-------------------------------------------|
G|--------2----------2-----------2-----------------------------------------|
D|-----------2----------2----------2---------------------------------------|
A|-------------------------------------------------------------------------|
E|-------------------------------------------------------------------------|



e|-----0---3--0----------------------------------------------------0--7--3-|
B|-----------------3--5--3-----5--3-----5--3-------------------------------|
G|--2-----------------------2--------2---------2----2--4---2-----2---------|
D|-------------------------------------------------------------------------|
A|-------------------------------------------------------------------------|
E|-------------------------------------------------------------------------|


e|--0--3--0--------------3-------------5--12--15--12-----10--12--10--------|
B|-----------3--1--3--5-----1--3--5----------------------------------10----|
G|-------------------------------------------------------------------------|
D|-------------------------------------------------------------------------|
A|-------------------------------------------------------------------------|
E|-------------------------------------------------------------------------|


e|--12--10------12--10-------5--7--5---5--12--19--15------12--15--12-------|
B|----------10----------10-------------------------------------------15--13|
G|-------------------------------------------------------------------------|
D|-------------------------------------------------------------------------|
A|-------------------------------------------------------------------------|
E|-------------------------------------------------------------------------|


e|-----12--15----------0--5--12--15--12--10--12------12--10-----12--10-----|
B|-15----------13--15--5-------------------------10---------10----------10-|
G|-------------------------------------------------------------------------|
D|-------------------------------------------------------------------------|
A|-------------------------------------------------------------------------|
E|-------------------------------------------------------------------------|


e|-----------13--17---15--12--16--19--22--20--22--22b----5--12--15--12-----|
B|--10--13-----------------------------------------------------------------|
G|-------------------------------------------------------------------------|
D|-------------------------------------------------------------------------|
A|-------------------------------------------------------------------------|
E|-------------------------------------------------------------------------|


e|--10--17--20--17--5--12--15--12--10--17--20--19--17--5--12---12--10------|
B|---------------------------------------------------------------------13--|
G|-------------------------------------------------------------------------|
D|-------------------------------------------------------------------------|
A|-------------------------------------------------------------------------|
E|-------------------------------------------------------------------------|


e|-10--------------5--12--12--10--8--12--10--8--12--10--8--12--10--8-------|
B|-----13--12--10----------------------------------------------------------|
G|-------------------------------------------------------------------------|
D|-------------------------------------------------------------------------|
A|-------------------------------------------------------------------------|
E|-------------------------------------------------------------------------|

E|--12--10--8--12--10--8--12--10--8--12--10--8--12--10--8--12--10--8--(8)--|
B|-------------------------------------------------------------------------|
G|-------------------------------------------------------------------------|
D|-------------------------------------------------------------------------|
A|-------------------------------------------------------------------------|
E|-------------------------------------------------------------------------|

e|-13-12-10-13-12-10-13-12-10-13-12-10-13-12-10-13-12-10-13-12-10-13-12-10-|
B|-------------------------------------------------------------------------|
G|-------------------------------------------------------------------------|
D|-------------------------------------------------------------------------|
A|-------------------------------------------------------------------------|
E|-------------------------------------------------------------------------|

e|-13-12-10-13-12-10-(10)--15--13--12--15--13--12--13--15--13--12--15--15--|
B|-------------------------------------------------------------------------|
G|-------------------------------------------------------------------------|
D|-------------------------------------------------------------------------|
A|-------------------------------------------------------------------------|
E|-------------------------------------------------------------------------|

e|-13--12--15--13--12--15--13--12--15--13--12--15--13--12--15--13--12--15--|
B|-------------------------------------------------------------------------|
G|-------------------------------------------------------------------------|
D|-------------------------------------------------------------------------|
A|-------------------------------------------------------------------------|
E|-------------------------------------------------------------------------|

e|--13--12--15--(15)-------------------------------------------------------|
B|-------------------------------------------------------------------------|
G|-------------------------------------------------------------------------|
D|-------------------------------------------------------------------------|
A|-------------------------------------------------------------------------|
E|-------------------------------------------------------------------------|

FIN.
Tap to rate this tab
# A B C D E F G H I J K L M N O P Q R S T U V W X Y Z