Song name
# A B C D E F G H I J K L M N O P Q R S T U V W X Y Z

Ennio Morricone - Navajo Joe tab

-------------------------------------------------------------------------------
			     NAVAJO JOE - ENNIO MORRICONE
-------------------------------------------------------------------------------
Tabbed by: Paul Mckenzie
Email:

Tuning:Standard

e|---------------------------------------------------------------------------|
B|---------------------------------------------------------------------------|
G|--------------------------------------------0------------------------------|
D|-0-0-2-3-----------0-0-2-3----------0-0-2-3--------------------------------|
A|---------0-----------------0-----------------------------------------------|
E|---------------------------------------------------------------------------|

e|---------------------------------------------------------------------------|
B|---------------------------0-----------------------------------------------|
G|-----------------------------2-0-------------------------------------------|
D|-0-0-2-3-----------0-0-2-3-------3-2-0---0-2-------------------------------|
A|---------0-----------------------------3-----0-----------------------------|
E|--------- -----------------------------------------------------------------|


I was watching Kill Bill and this is the song played just after Bill Dies. Very taken 
the sound  It is also the
Theme from a 1960's movie Navajo Joe - Starred Burt Reynolds.

The tune is very simple and I am surprised not to find a tab for it anywhere.  Very 
of Spaghetti Western style music
Tap to rate this tab
# A B C D E F G H I J K L M N O P Q R S T U V W X Y Z