Song name
# A B C D E F G H I J K L M N O P Q R S T U V W X Y Z

Ennio Morricone - El Bueno El Malo Y El Feo tab

e/-------------------------------------------------------------------------|
b/---15---15-----------------15--15--------13-------15--15-----------------|
g/-14--14---14---12-------14--14--14---12---------14--14--14---------------|
d/-------------15--12----------------15------------------------15-14-12----|
a/----------------------------------------------------------------------15-|
e/-------------------------------------------------------------------------|

e/--------------------------|
b/---15---15----------------|
g/-14--14---14----12--------|
d/-------------------12--12-|
a/--------------------------|
e/--------------------------|
Tap to rate this tab
# A B C D E F G H I J K L M N O P Q R S T U V W X Y Z