Song name
# A B C D E F G H I J K L M N O P Q R S T U V W X Y Z

Ennio Morricone - For A Few Dollars More tab

FOR A FEW DOLLARS MORE

Whistled
|------------------------|----------------0--1---|-----------------------|
|---3---1----------------|---3-3h5p3/1--3--------|--3-3h5p3/1--3--2------|
|-2-------2----0-2-0-----|--2--------------------|-2----------------1----|
|--------------------0---|-----------------------|-----------------------|
|------------------------|-----------------------|-----------------------|
|------------------------|-----------------------|-----------------------|

|----------------0---------|-----------------------|
|--3-3h5p3/13--3---3-1-0-1-|-----------------------|
|-2------------------------|--2-0-------------2----|
|--------------------------|-------2--2---0--------|
|--------------------------|-----------------------|
|--------------------------|-----------------------|		x2

Guitar
|-----------5--|-----------5--|
|---3333--6----|---3333--6----|
|-2------------|-2------------|
|--------------|--------------|
|--------------|--------------|
|--------------|--------------|

|---1-1-3-1-1--5-8--|-5-1-----1-5--|-1---------1--|-3---1--0----------|
|-31----------------|-----3-3------|---3-----3----|-----------3-------|
|-------------------|--------------|-----3-3------|-------------------|
|-------------------|--------------|--------------|-------------------|
|-------------------|--------------|--------------|-------------------|
|-------------------|--------------|--------------|-------------------|

Whistled
|------------------------|----------------0--1---|-----------------------|
|---3---1----------------|---3-3h5p3/1--3--------|--3-3h5p3/1--3--2------|
|-2-------2----0-2-0-----|--2--------------------|-2----------------1----|
|--------------------0---|-----------------------|-----------------------|
|------------------------|-----------------------|-----------------------|
|------------------------|-----------------------|-----------------------|

|----------------0---------|-----------------------|
|--3-3h5p3/13--3---3-1-0-1-|-----------------------|
|-2------------------------|--2-0-------------2----|
|--------------------------|-------2--2---0--------|
|--------------------------|-----------------------|
|--------------------------|-----------------------|	

Guitar
|---------|---------|---------1-5-3-1-3-3-1-0---0-------|
|---3333--|---3333--|----3333-----------------3---1-----|
|-2-------|-2-------|-2-----------------------------2---|
|---------|---------|-----------------------------------|
|---------|---------|-----------------------------------|
|---------|---------|-----------------------------------|

|---------|---------|---1-1-3-1-1-5-8-5-1-----1-5-1---------1-3----|
|---3333--|---3333--|-1--3333-------------3-3-------3-----3--------|
|-2-------|-2-------|---------------------------------3-3----------|
|---------|---------|----------------------------------------------|
|---------|---------|--------------------------------------------0-|
|---------|---------|----------------------------------------------|

Occasional notes after this section which I didn't tab

Whistled
|------------------------|
|---3---1----------------|
|-2-------2----0-2-0-----|
|--------------------0---|
|------------------------|
|------------------------|

Repeated until fade out

Tap to rate this tab
# A B C D E F G H I J K L M N O P Q R S T U V W X Y Z