Song name
# A B C D E F G H I J K L M N O P Q R S T U V W X Y Z

Ennio Morricone - Chi Mai chords

Hey! This is the first time I submit something here so apologizes if some kind of 
is omitted.

  http://www.youtube.com/watch?v=3N22gGdm0WA thats the video I listened to. My chords 
to the guitar on the second screen.
 You need to play a little with string bending

//////

 Saludos! Esta es la primera vez que publico algo aquí, asi que disculpenme si algun 
de normativa es omitida.

  http://www.youtube.com/watch?v=3N22gGdm0WA ese es el video que escuché. Mis cuerdas 
a la guitarra en la segunda pantalla.
 Tienen que jugar un poco con el bending de cuerdas.


e|-----9----9----9----7----5----7---|-------------------------------------|
B|----------------------------------|---------10---7----9----10---10------|
G|----------------------------------|----------------------------------7--|
D|----------------------------------|-------------------------------------|
A|----------------------------------|-------------------------------------|
E|----------------------------------|-------------------------------------|


e|----------------------------------|----------------------9---7----9-----|
B|----9--7--9-----------------------|----7--5--7--------------------------|
G|----------------------------------|--------------4----------------------|
D|--------------11------------------|-------------------------------------|
A|----------------------------------|-------------------------------------|
E|----------------------------------|-------------------------------------|


e|-----9----9----9----7----5----7---|--------14---------------------------|
B|----------------------------------|---10------------9---10--------------|
G|----------------------------------|----------------------------7--------|
D|----------------------------------|-------------------------------------|
A|----------------------------------|-------------------------------------|
E|----------------------------------|-------------------------------------|


e|----------------------------------|-------------------------------------|
B|---9-7-9--9-7-9--9-7-9--9---------|-7--7-5-7--7-5-7--7-5-7--------------|
G|----------------------------------|--------------------------4----------|
D|---------------------------11-----|-------------------------------------|
A|----------------------------------|-------------------------------------|
E|----------------------------------|-------------------------------------|


e|-------------------------------14-|
B|-6--6-4-6--6-4-6--6-4-6---7-------|
G|----------------------------------|
D|----------------------------------|
A|----------------------------------|
E|----------------------------------|



e|-----------------------------------|----------------------------------|
B|-----------------------------------|---------???-------???------------|
G|-----------------------------------|---------???-------???------------|
D|-11--9--11--12--9-9-8-9---7--6--7--|---------???-------???------------|
A|-----------------------------------|---------???-------???------------|
E|-----------------------------------|----------------------------------|

e|-----------------------------------|----------------------------------|
B|-----------------------------------|----------------------------------|
G|-11--9--11--12--9-----7--6--7------|-------------11--13------8---10---|
D|-----------------------------------|--11--9--11-----------------------|
A|-----------------------------------|----------------------------------|
E|-----------------------------------|----------------------------------|


e|-------------9---7-----------------|
B|--7-9-10-------------7---9---------|
G|-----------------------------------|
D|-----------------------------------|
A|-----------------------------------|
E|-----------------------------------|




e|-----9----9----9----7----5----7---|--------14---------------------------|
B|----------------------------------|---10------------9---10--------------|
G|----------------------------------|----------------------------7--------|
D|----------------------------------|-------------------------------------|
A|----------------------------------|-------------------------------------|
E|----------------------------------|-------------------------------------|


e|----------------------------------|-------------------------------------|
B|---9-7-9--9-7-9--9-7-9--9---------|-7--7-5-7--7-5-7--7-5-7--------------|
G|----------------------------------|--------------------------4----------|
D|---------------------------11-----|-------------------------------------|
A|----------------------------------|-------------------------------------|
E|----------------------------------|-------------------------------------|


e|-------------------------------14-|
B|-6--6-4-6--6-4-6--6-4-6---7-------|
G|----------------------------------|
D|----------------------------------|
A|----------------------------------|
E|----------------------------------|


 If someone success with the ??? part please send me an email to Lobopacifico@gmail.com. 
Thanks.

//

 Si alguien tiene éxito con la parte ??? porfavor envienme un email a 
 Gracias.
Tap to rate this tab
# A B C D E F G H I J K L M N O P Q R S T U V W X Y Z