Song name
# A B C D E F G H I J K L M N O P Q R S T U V W X Y Z

Ennio Morricone - Ladies And Gentlemen Of The Jury tab

Ladies And Gentlemen Of The Jury ("LOLITA" SOUNTRACK) by Ennio Morricone


        C            Am         F            D5
|-0---0----------1-0------0---0----------5-3-----------0-3--|
|---3---1----1-3-----1------3---1----1-3-----1-----1-3------|
|-------0------------2----------2------------2--------------|
|-------2------------2----------3------------0--------------|
|-------3------------0----------3---------------------------|
|-----------------------------------------------------------|

                                            C
|---3-5-3-----3-5-3---3-8-7-7-3---3---1-0---------|
|-3---------3-----------------------1-----3-1-----|
|-------------------------------------------0-----|
|-------------------------------------------2-----|
|-------------------------------------------3-----|
|-------------------------------------------------|

(TWICE)

I hope you like it!
Enjoy!
Tap to rate this tab
 
# A B C D E F G H I J K L M N O P Q R S T U V W X Y Z