Song name
# A B C D E F G H I J K L M N O P Q R S T U V W X Y Z

Ennio Morricone - Rabbia E Tarantella tab

||----------------------------------------------------------------------------|
||----------------------------------------------------------------------------|
||----------------------------------------------------------------------------|
||----------------------------------------------------------------------------|
||--------------------------------------------9--9---------------9-9-9-10--10-|
||--7-7-7-9---10-10-10-9---10-10-10-12-12-12-------10---12-12-12--------------|


||-------------------------:||
||-------------------------:||
||-------------------------:||
||-------------------------:||
||----------------------9--:||
||-12---12-10-9-9-7-9------:||
Tap to rate this tab
# A B C D E F G H I J K L M N O P Q R S T U V W X Y Z