Song name
# A B C D E F G H I J K L M N O P Q R S T U V W X Y Z

Ennio Morricone - Two Mules For Sister Sarah Theme tab

I dug around and didn't find any tab so I started playing around with the riffs, I'm
pretty sure this one is correct, with the exception of the bendy rhythm guitar, which you
will just have to play around with. It is tuned in drop D just to get that low note, 
unless you wanna just use the D string for it, your call.

Legend:
b-bend
\-slide
o-repeat

Rhythm guitar:

e|----------------------------------------------------------------------------|
b|----------------------------------------------------------------------------|o
g|--7--777--77-7b--777--776\7--777--------------------------------------------|
d|--0--000--00-0---000--000----000--------------------------------------------|
a|----------------------------------------------------------------------------|o
D|----------------------------------------------------------------------------|

Just play around with the bends and slides to the 6th, it will sound basically right as
long as there's dissonance

lead (winds)

e|---------------------------------------------------------------------------|
b|---------------------------------------------------------------------------|
g|---------------------------------------------------------------------------|
d|--15---------15---------15------15----15----15-----------------------------|
a|---------------------------------------------------------------------------|
D|-----0----------0----------0-------0-----0-----0---------------------------|



e|---------------------------------------------------------------------------|
b|---------------------------------------------------------------------------|
g|---------------------------------------------------------------------------|
d|-12--15--12------12--15--12-------12------12-14-12-----12-14-15-14-12------|
a|--------------------------------------12-----------12-----------------12---|
D|---------------------------------------------------------------------------|


e|---------------------------------------------------------------------------|
b|---------------------------------------------------------------------------|
g|----------12-----------------------12-14-12--------------------------------|
d|-12-14-15----15-14-12-----12-14-15----------15-14-12-----------------------|
a|----------------------12-----------------------------12--------------------|
D|---------------------------------------------------------------------------|



e|---------------------------------------------------------------------------|
b|---------------------------------------------------------------------------|
g|---------------------------------------------------------------------------|
d|--12--15--12---12--15--12----12-----12-14-12-------------------------------|
a|--------------------------------12-----------12----------------------------|
D|---------------------------------------------------------------------------|



e|---------------------------------------------------------------------------|
b|---------------------------------------------------------------------------|
g|-----------12-14-12--------------------------------------------------------|
d|--12-14-15----------15-14-12-----------------------------------------------|
a|-----------------------------12--------------------------------------------|
D|---------------------------------------------------------------------------|



e|---------------------------------------------------------------------------|
b|----------------15----------------------------------15---------------------|
g|----------12-14----14-12----------------------12-14----14-12---------------|
d|-12-14-15----------------15-14-12----12-14-15----------------15-14-12------|
a|----------------------------------12---------------------------------------|
D|---------------------------------------------------------------------------|


vocal churchy thing:

e|---------------------------------------------------------------------------|
b|---------------------------------------------------------------------------|
g|---------------------------------------------------------------------------|
d|--15--15--17--15--14-12-14--15---------------------------------------------|
a|---------------------------------------------------------------------------|
D|---------------------------------------------------------------------------|

That's the jist of it, I didn't take the time to figure out the whole quiet solo piece
at the beginning, but he's just going up and down the same scale as above^^^^^^^

enjoy the tab!
Tap to rate this tab
# A B C D E F G H I J K L M N O P Q R S T U V W X Y Z