Song name
# A B C D E F G H I J K L M N O P Q R S T U V W X Y Z

Ennio Morricone - Once Upon A Time In The West - Jills Theme tab

INTRO
e|--------------------------------------------------------------------------|
B|--5----3--3----1--1-------3----1--1---------------------------------------|
G|--5----4--4----2--2----4--4----2--2----4--2-------------------------------|
D|-----------------------5---------------5--3-------------------------------|
A|--------------------------------------------------------------------------|
E|--------------------------------------------------------------------------|

e|--5----3--3----1--1-------3----1--1---------------------------------------|
B|--6----5--5----3--3----5--5----3--3----5--5-------------------------------|
G|-----------------------5---------------5--5-------------------------------|
D|--------------------------------------------------------------------------|
A|--------------------------------------------------------------------------|
E|--------------------------------------------------------------------------|

e|--------------------------------------------------------------------------|
B|--5----3--3----1--1-------3----1--1---------------------------------------|
G|--5----4--4----2--2----4--4----2--2----4--2-------------------------------|
D|-----------------------5---------------5--3-------------------------------|
A|--------------------------------------------------------------------------|
E|--------------------------------------------------------------------------|

e|--5----3--3----1--1-------3----1--1---------------------------------------|
B|--6----5--5----3--3----5--5----3--3----5--5-------------------------------|
G|-----------------------5---------------5--5-------------------------------|
D|--------------------------------------------------------------------------|
A|--------------------------------------------------------------------------|
E|--------------------------------------------------------------------------|

MELODY
e|------------------------------------------------1----0-----0--------------|
B|--------------------------------------------------------3-----------------|
G|--------------------------------------------------------------------------|
D|-----2--------3--2--0----------------------5------------------------------|
A|-----------------------3--------------3-----------------------------------|
E|--3-----------------------------------------------------------------------|

e|--0-----------------------------------------------------------------------|
B|-------3-3------1-------0--1----------------------------------------------|
G|-----------------------------2--0--------2--------------------------------|
D|-----------------------------------------------0--2-----------------------|
A|--------------------------------------------3-----------------------------|
E|--------------------------------------------------------------------------|
Tap to rate this tab
# A B C D E F G H I J K L M N O P Q R S T U V W X Y Z