Song name
# A B C D E F G H I J K L M N O P Q R S T U V W X Y Z

Ennio Morricone - The Demise Of Barbara And The Return Of Joe tab

Ennio Morricone
"La Fine Di Barbara, E Il Ritor di Joe"
"The Demise Of Barbara, And The Return of Joe"

From 1963 "Navajo Joe"
Also in "Kill Bill Vol. 2", but not on the soundtrack CD

Part 1, on acoustic guitar with "triolet feeling" and "fade in, fade out"
(0:00)
e------------|-----------|----------|---------|--------|
b------------|-----------|----------|---------|--------|
g------------|-----------|----------|---------|--------|
d--2-0-------|--2-0------|--5-2-----|--5-2----|--------|
a------0-----|------0----|------3---|------3--|--5-----|
e------------|-----------|----------|---------|--------|
           x5        x5           x5        x5

e------------|----------|--------||
b------------|----------|--------||
g------------|----------|--------||
d--2-0-------|--2-0-----|--------||
a-------0----|------0---|-7------||
e------------|----------|--------||
           x5         x5      

Chords part:
(0:54)
Am AmAm  D DD  Am AmAm  D F
C CC  Am AmAm  D DD  Am AmAm 

(1:33)
Am AmAm  D DD  Am AmAm  D F 
C CC  Am AmAm  D DD  Am


Back on (2:11) 
e------------|-----------|----------|---------|---------------------||
b------------|-----------|----------|---------|---------------------||
g------------|-----------|----------|---------|---------------------||
d--2-0-------|--2-0------|--5-2-----|--5-2----|---------------------||
a------0-----|------0----|------3---|------3--|--5---------0--------||
e------------|-----------|----------|---------|--3------------------||
           x5        x5           x5        x5   Keep     Keep too



And the electric guitar solo (Delay, reverb, it sounds great if insist on open string notes) 
(2:55)
e---------------|--------------|-------------|-------------------|-------------||
b---------------|--------------|-------------|-----------0-------|-------------||
g---------------|-----------0--|-------------|-------------2-0---|-------------|| x2
d----------2----|---------2----|--------2----|---------2-------2-|-2-0--0-0----||
a---3-3-5----0--|--3-3-5-------|--3-3-5---0--|--3-3-5------------|-----3----0--||
e---------------|--------------|-------------|-------------------|-------------||
              x2                           x2


End on: 
(3:55)
e-------||
b-------||
g---2---||
d---2---||
a---0---||
e-------||


To quote and reinterpret 'Django unchained' line: 
"I Love the way you die, Bill"
Mistakes, correction, comments are welcome.
beranger80@hotmail.com
Tap to rate this tab
 
# A B C D E F G H I J K L M N O P Q R S T U V W X Y Z