Song name
# A B C D E F G H I J K L M N O P Q R S T U V W X Y Z

Ennio Morricone - The Good The Bad And The Ugly tab

The, Good The Bad and The Ugly Theme by Ennio Morricone

Standard Tuning

100% Correct. (Although in the actual version it may be played on a different 
place on the neck, but exact same notes 100%). 
Also the only tab on UG to have the correct descending riff/lick (last section of the tab).

E|------------------------------------------------------------------|
B|--10h15p10h15p10---------------10h15p10h15p10--------------13-----|
G|------------------10--12-----------------------10----12-----------|
D|--------------------------12--------------------------------------|
A|------------------------------------------------------------------| 
E|------------------------------------------------------------------|

E|------------------------------------------------------------------|
B|--10h15p10h15p10---------------10h15p10h15p10---------------------|
G|-----------------10--9-------------------------12-----------------|
D|-----------------------12-10-------------------------12-----------|
A|------------------------------------------------------------------| 
E|------------------------------------------------------------------|

E|------------------------------------------------------------------|
B|------------------------------------------------------------------|
G|------------------------------------------------------------------|
D|-------7----10----------7----10-----------------------------------|
A|----5----8-----------5----8---------------------------------------| 
E|--5----------------5----------------------------------------------|

E|------------------------------------------------------------------|
B|---------------------------8---------------10---------------------|
G|--------------------9----9----------------------------------------|
D|-------7----10---7----10------------------------------------------|
A|----5----8--------------------------------------------------------| 
E|--5---------------------------------------------------------------|

E|------------------------------------------------------------------|
B|---------8---------------8-----------8----------8-----------------|
G|-10p9-7-------7--10p9-7----7-10p9-7----7-10p9-7---7---------------|
D|------------------------------------------------------------------|
A|------------------------------------------------------------------| 
E|------------------------------------------------------------------|

E|------------------------------------------------------------------|
B|------------------------------------------------------------------|
G|-10p9-7-10-9-----7p5-4-7-5----4p2---4-2---------------------------|
D|------------10-------------7------5-----3-----5-3-2--3-0----------|
A|----------------------------------------------------------3-----4-| 
E|------------------------------------------------------------------|

'Spanish' sounding background guitar after this part plays this chord galloped.

E|0
B|1
G|3
D|2
Tap to rate this tab
 
# A B C D E F G H I J K L M N O P Q R S T U V W X Y Z