Song name
# A B C D E F G H I J K L M N O P Q R S T U V W X Y Z

Ennio Morricone - Il Vizio Duzzidere tab

Help us improve GuitareTab! Take a short survey!
intro:

e|-5~-6-8-6-5-3~-5-3-1-----|
b|---------------------2---|
g|-------------------------|
d|-------------------------|
a|-------------------------|
e|-------------------------|

e|-------------------------|
b|-5~-6-8-6-5-3~-5-6-8-10--|
g|-------------------------|
d|-------------------------|
a|-------------------------|
e|-------------------------|


Other part (play this twice.. second time faster):

e|------------------------|-----|
b|-3~-3-10~-10-8-10-8-6-3-|-1---|
g|------------------------|---2-|
d|------------------------|-----|
a|------------------------|-----|
e|------------------------|-----|
                             ^ skip this the second time


e|------------------------------|
b|-3~-3-10~-10-8-10-8-6-3-1-1h3-|
g|------------------------------|
d|------------------------------|
a|------------------------------|
e|------------------------------|


Second other part:


e|--------------------------------------------------|
b|-5~-6-8-6-5-3-5-3-1-------------------------------|
g|--------------------2-----------------------------|
d|-------------------------2-3-5-3-2-0-0h2-3-5-7----|
a|--------------------------------------------------|
e|--------------------------------------------------|


Outro:


e|--------------------------------------------------------|----------|
b|-3h5p3-------3-----3-2-3--3-6-6-5--3\5--5\6--6\8--8\10--|-8-10-----|
g|-------2-2\4---2-4--------------------------------------|----------|
d|--------------------------------------------------------|----------|
a|--------------------------------------------------------|----------|
e|--------------------------------------------------------|----------|
                                             repeat until fade ^
Related for Il Vizio Duzzidere tab