Song name
# A B C D E F G H I J K L M N O P Q R S T U V W X Y Z

Eno Brian - Golden Hours tab

----------------------------------------------------------------------------
			     GOLDEN HOURS- Brian Eno
----------------------------------------------------------------------------
Tabbed by: Nikhil Mathews
Email:tigerngm@yahoo.com

Tuning: Standard

The Chord progression is the same throughout the song: C Em C Em D G

The solo is played extremely quickly:

e|---------------------------------------------------------------------------|
B|--5-6-5----------5-6-5-6-8---5-6-5--------5-6-5-6-8------------------------|
G|--------5---5----------------------5---5-----------------------------------|
D|----------5--------------------------5-------------------------------------|
A|---------------------------------------------------------------------------|
E|---------------------------------------------------------------------------|

e|----------------------4----------------------------------------------------|
B|-5-6-5-6-5-6-5-6-5-6----5-6-5----------------------------------------------|
G|------------------------------7-4------------------------------------------|
D|----------------------------------6----------------------------------------|
A|------------------------------------(7-8)x14-------------------------------|
E|---------------------------------------------8-----------------------------|

e|---------------------------------------------------4-----------------------|
B|---------------------5-6-5-6-8-5-6-5-6-5-6-5-6-5-6-------------------------|
G|-----------------4-5-------------------------------------------------------|
D|-------------5-7-----------------------------------------------------------|
A|-7-8-7-8-7-8---------------------------------------------------------------|
E|---------------------------------------------------------------------------|

e|---------------------------------------------------------------------------|
B|-5-6-5---------------------------------------------------------------------|
G|-------7-4-----------------------------------------------------------------|
D|-----------6---------------------------------------------------------------|
A|-------------(7-8) x11--(5-8)-x5--fade-------------------------------------|
E|---------------------------------------------------------------------------|

e|---------------------------------------------------------------------------|
B|--5-6-5----------5-6-5-6-8---5-6-5--------5-6-5-6-8------------------------|
G|--------5---5----------------------5---5-----------------------------------|
D|----------5--------------------------5-------------------------------------|
A|---------------------------------------------------------------------------|
E|---------------------------------------------------------------------------|

e|---------4-----------------------------------------------------------------|
B|-(5-6)x8----5-6-5------------------------5-8-5-8-5-5-----------------------|
G|------------------7-4------------------------------------------------------|
D|----------------------6----------------------------------------------------|
A|------------------------(7-8)x13---7-8-7-----------------------------------|
E|---------------------------------8-----------------------------------------|


============================================================================
Tap to rate this tab
# A B C D E F G H I J K L M N O P Q R S T U V W X Y Z