Song name
# A B C D E F G H I J K L M N O P Q R S T U V W X Y Z

Enochian Crescent - Ghost Of Saturn tab

E-|--------------------------------------------|
B-|--------------------------------------------|
G-|--------------------------------------------|
D-|-----3-------3-------2-------2--------------|
A-|---0-------0-------0-------0----------------|
D-|-0-------0-------0-------0------------------|

E-|--------------------------------------------|
B-|--------------------------------------------|
G-|--------------------------------------------|
D-|-----2-------2-------3-------3--------------|
A-|---0-------0-------0-------0----------------|
D-|-3-------3-------3-------3------------------| x2
 
There you go.

http://www.enochian-crescent.com/blackchurch/index.php?id=news
Tap to rate this tab
# A B C D E F G H I J K L M N O P Q R S T U V W X Y Z