Song name
# A B C D E F G H I J K L M N O P Q R S T U V W X Y Z

Enochian Crescent - Under Autumn Trees tab

Enochian Crescent - Under Autumn Trees

Tabbed by Antsa (plug_spank@hotmail.com)

RIFF1
E------------------------------------|
B------------------------------------|
G------------------------------------|
D---3--3-----------3-4--------4------|
A-1-------3-4---1-------2--4-----0---|
E------------------------------------|

RIFF2
E---------------------------------------------------------|
B---------------------------------------------------------|
G---------------------------------------------------------|
D---------------------------------------------------------|
A-4-------4-------4--------------2-------2-------2--7--5--|
E-2--2222-2--2222-2--2222-555555-0--0000-0--0000-0--5--3--|
PM   ....    ....    .... ......    ....    ....

RIFF3
E-------------------|
B-------------------|
G-3--3-3-------7----|
D--------4-6-5------|
A-------------------|
E-------------------|

RIFF4                          ENGIND BEFORE SECOND RIFF
E-----------------------------|---------------------------------------|
B-----------------------------|---------------------------------------|
G----1-----------1------------|---------------------------------------|
D-1-----4--3------------4---1-|-1--4--1--0--1-----0-----4----6----3---|
A-------------4----4--2---1---|---------------------------------------|
E-----------------------------|---------------------------------------|

RIFF5
E------------------------------------------|
B------------------------------------------|
G------------------------------------------|
D-11111111-00000000-44444444-6666-33333333-|
A------------------------------------------|
E------------------------------------------|

RIFF6
E----------------------------------------------|
B----------------------------------------------|
G----------------------------------------------|
D-444444447744-22222225522-111111--------------|
A---------------------------------22222-111111-|
E----------------------------------------------|

E----------------------------------------------|
B----------------------------------------------|
G----------------------------------------------|
D-444444447744-22222225522-111111--------------|
A---------------------------------22222-444444-|
E----------------------------------------------|
Tap to rate this tab
# A B C D E F G H I J K L M N O P Q R S T U V W X Y Z