Song name
# A B C D E F G H I J K L M N O P Q R S T U V W X Y Z

Enochian Crescent - Closed Gates Of Tomorrow tab

Enochian Crescent - Closed Gates of Tomorrow (The cold harvest)

Tabbed by Antsa (plug_spank@hotmail.com)

Tune 2 steps down.

(0:00)
---------------------------------------------------|
---------------------------------------------------|
---------------------------------------------------|
---------------------------------------------------|
-8-8888-121212-101010101010-8-888-5-6-8-888-8-8888-|
-6-6666-9-999--8-888-8-888--6-666-3-4-6-666-6-6666-|

(0:19)
-------------------------|
-------------------------|
-------------------------|
-------------------------|
-8--8--8--8--4--4--3--6--|
-6--6--6--6--2--2--1--4--|

(0:37)
--------------------------------------------------|
--------------------------------------------------|
--------------5-3-5-3-----------------8-7-8-7-10--|
-5--5-5-5-3-5---------6--5--5-5-5-3-5-------------|
--------------------------------------------------|
--------------------------------------------------|

(1:10)
-----------------------|
-----------------------|
-----------------------|
-----------------------|
-3*----3-3-3-3-3-3-3-3-|
-1*----1-1-1-1-1-1-1-1-|
let ring

(1:30)
------------------------------------------------------------|
------------------------------------------------------------|
------------------------------------------------------------|
-------------4-------------4-------------4------------------|
-3-3-3-3-3-3-2-3-3-3-3-3-3-2-3-3-3-3-3-3-2-3-3-3-3-3-3-3/2--|
-1-1-1-1-1-1---1-1-1-1-1-1---1-1-1-1-1-1---1-1-1-1-1-1------|
Tap to rate this tab
# A B C D E F G H I J K L M N O P Q R S T U V W X Y Z