Song name
# A B C D E F G H I J K L M N O P Q R S T U V W X Y Z

Enochian Crescent - Lyijysiipi tab

Band: Enochian Crescent
Song: Lyijysiipi

Tab By: skyturnedred@gmail.com

Tuning: DADGBE

. = Palm-mute


RIFF 1

|-----------------------------------|
|-----------------------------------|
|-----------------------------------|---|
|-----------------------------------|   |
|-----------------------------------|   |
|--878-555-878-555-878-555-878-111--|   |
                                        |---x2
|-----------------------------------|   |
|-----------------------------------|   |
|-----------------------------------|   |
|---------------------------(ten)---|---|
|-----------------------------------|
|--878-555-878-555-545-777-7810-444-|


FILL (verse without guitar)
|---------|
|---------|
|---------|
|---------|
|---------|
|-878-5---|


RIFF 1 with this harmony (0:35)

|-----------------------------------|
|-----------------------------------|
|--757-333-757-333-757-333-757------|---|
|------------------------------444--|   |
|-----------------------------------|   |
|-----------------------------------|   |
                                        | x2
|-----------------------------------|   |
|-----------------------------------|   |
|--757-333-757-333-323-555-7810-333-|   |
|-----------------------------------|---|
|-----------------------------------|
|-----------------------------------|

|---------|
|---------|
|-757-3---|
|---------|
|---------|
|---------|



RIFF 2 (0:53) (verse)

|-----------------------------|
|-----------------------------|
|-----------------------------|
|-----------------------------|
|-----------------------------|
|-(5)---111-5------545-7--4---|

|-----------------------------|
|-----------------------------|
|-7---333-7------323-5--2-----| <- Gtr2
|-----------------------------|
|-----------------------------|
|-5---111-5------545-7--4-----| <- Gtr1



FILL (1:10)

Gtr1
|--------------|
|--------------|
|--------------|
|-4--5--7--8---|
|-4--5--7--8---|
|-4--5--7--8---|

Gtr2
|--------------|
|--------------|
|-2--3--5--7---|
|--------------|
|--------------|
|--------------|


RIFF 3 (1:13)  (I know, this riff is a bit off)

Gtr1 (clean tone)
|-----------------|
|--10--8---8---6--|
|--9---7---7---5--|--|
|--7---5---5---3--|  |
|--7---5---5---3--|  |
|--7---5---5---3--|  | x3
                     |
Gtr2                 |
|-----------------|  |
|-----------------|--|
|--5---3---3---2--|  
|-----------------|     On first repeat, don't
|-----------------|     play two first notes.
|-----------------|

Gtr1&2
|-----------------|
|-----------------|
|-----------------|
|-----------------|
|--000000000000---|
|--000000000000---|
   ............



RIFF 4 (1:39)

Gtr1
|-----------------|
|-----------------| 
|-----------------| x4
|-10---5---8---7--| 
|-10---5---8---7--| Strum chords.
|-10---5---8---7--|


On 3rd repeat:

Gtr2
|------------------------------------|
|---------888------------------------|
|-555-888-----888--777-----777-------|
|----------------------888-----888---|
|------------------------------------|
|------------------------------------|

|------------------------------------|
|------------------------------------|
|-----555-666-555--------------------|
|-777--------------777-555-----555---|
|--------------------------888-------|
|------------------------------------|

|------------------------------------|
|---------888------------------------|
|-555-888-----888--777-----777-------|
|----------------------888-----888---|
|------------------------------------|
|------------------------------------|

|-------------------|
|-------------------|
|-----555-666-555---|
|-777---------------|
|-------------------|
|-------------------|


RIFF 1 with harmony (2:10)

RIFF 2, strum notes (2:29)

RIFF 1 with harmony (2:46)

RIFF 2, tremolo pick notes (3:04)

RIFF 3 (3:24)


RIFF 4 (3:54)

|--------------------------------------------------|
|--------------------------------------------------|
|--------------------------------------------------|
|-7-----7-----7-----8-----7-----7-----10-----5-----|
|-5-555-5-555-5-555-6-666-5-555-5-555--8-888-3-333-|
|--------------------------------------------------|
    ...   ...   ...   ...   ...   ...    ...   ...

|---------------------------------------------------|
|---------------------------------------------------|
|---------------------------------------------------|
|-7-----7-----7-----8-----10-----11-----8-----7-----|
|-5-555-5-555-5-555-6-666--8-888--9-999-6-666-5-----|
|---------------------------------------------------|
    ...   ...   ...   ...    ...    ...   ...   


RIFF 5 (4:36)

|-------------------------------------|
|-------------------------------------|
|-------------------------------------|
|-7-------7---------7-----------------|
|-5---666-5--888333-5--6668889996665--|
|-0-------0---------0--------------0--|
      ...    ......    .............


That's roughly it, I'll keep working on improvements and will
sort out the variations to RIFF2 later.
Tap to rate this tab
 
# A B C D E F G H I J K L M N O P Q R S T U V W X Y Z