Guitaretab - guitar tabs
Song name
# A B C D E F G H I J K L M N O P Q R S T U V W X Y Z

Enrico Macias - Adieu Mon Pays tab

Enrico Macias - Adieu Mon Pays
Submitted By: Antoine Abi Fadel
EMail: Zalem5@hotmail.com


Intro 
							  Dm
E --7--12------7--10--8-7^8^7^8^7------7--8^10^8^10^8---7--7----| 
B ---------------------------------10----------------------8----| 
G ---------------------------------------------------------9----| 
D ---------------------------------------------------------9----| 
A ---------------------------------------------------------7----| 
E ---------------------------------------------------------7----| 
				Strum chord with fingers slowlyE --15--14--12^14---10^12---8^10--7^8^7-----7--8^10^8--7-----------7^8^7-----| 
B ---------------------------------------10--------------10--8--10-----------| 
G ---------------------------------------------------------------------------| 
D ---------------------------------------------------------------------------| 
A ---------------------------------------------------------------------------| 
E ---------------------------------------------------------------------------| 
					    Strum chord with fingers slowly

E -------------------------------------------------------------------------7---| 
B -10---8-7---7--8^10^8--7----------7^8^7----------------------------------8---| 
G ----------9--------------9--7--9---------9--7--7^9^7---------------------9---| 
D ------------------------------------------------------11--10^11^10---9---9---| 
A -------------------------------------------------------------------------7---|
E -------------------------------------------------------------------------7---|
					    Strum chord with fingers slowly

[ Tab from: http://www.guitaretab.com/e/enrico-macias/41478.html ]
E ----------7--7----7-7----7-7-------7-7-7----7-7-7----7-7-7------| 
B ------------7------7------7---------8-7------8-7------8-7-------| 
G ---------8------8-------8--------9--------9--------9------------| 
D ----9-----------------------------------------------------------| 
A ----------------------------------------------------------------|
E ----------------------------------------------------------------|
E ----7---7-7--7-7-7-7-7-7-7-7---8-7^8^7^8^7------------8-7^8^7^8^7----| 
B -----10--8--7-8-7---7-----------------------10--8--10----------------| 
G --9---------------9---9-7-9------------------------------------------| 
D ---------------------------------------------------------------------| 
A ---------------------------------------------------------------------|
E ---------------------------------------------------------------------|
E -----------------------------------------------7---| 
B ---10--8-7--8^10^8---7----7^8^7----------------8---| 
G ------------------------9-------9--7-----------9---| 
D --------------------------------------10--9----9---| 
A -----------------------------------------------7---|
E -----------------------------------------------7---|
			    Strum chord with fingers slowly
		Em
J'ai quitté mon pays ...  

		D
J'ai quitté ma maison

		C
ma vie ma triste vie

		B
se traine sans raisonE --7^8^7-----7--8^10^8--7-----------7^8^7-----| 
B ---------10--------------10--8--10-----------| 
G ---------------------------------------------| 
D ---------------------------------------------| 
A ---------------------------------------------| 
E ---------------------------------------------| 
				

E -------------------------------------------------------------------------7---| 
B -10---8-7---7--8^10^8--7----------7^8^7----------------------------------8---| 
G ----------9--------------9--7--9---------9--7--7^9^7---------------------9---| 
D ------------------------------------------------------11--10^11^10---9---9---| 
A -------------------------------------------------------------------------7---|
E -------------------------------------------------------------------------7---|
					  


		Em
J'ai quitté mon soleil

		D
J'ai quitté ma mer bleue

		C
leur souvenir se reveille

		B
bien après mon adieu

    Em			      D			
Soleil, soleil de mon pays perdu
 	
			C
Les villes blanches que j'aimai

				B
Les filles que j'ai jadis connues

		Em
J'ai quitté une amie 

		D
je vois encore ses yeux

		C
ses yeux mouillés de pluie
	
		B
de la pluie de l'adieu

		Em
Je revois son sourire 
		
		D
si près de mon visage

		C
il faisait splandire

		B
les soirs de mon villages
E --9--7--6^7^6----------------| 
B --------------9--7--6--------| 
G -----------------------8-----| 
D -----------------------------| 
A -----------------------------| 
E -----------------------------| 
				

		Em
mais du bord du bateau

		D
qui m'eloignait du quai

		C
une chaïne dans l'eau
		
		B
a claqué comme un fouet

		Em
j'ai longtemps rebordé 

		D
ses yeux bleus qui fouillaient 

		C
la mer desanoyède

		B
dans le flanc du regret
Related for Adieu Mon Pays tab