Song name
# A B C D E F G H I J K L M N O P Q R S T U V W X Y Z

Enrique Bunbury - Hay Muy Poca Gente tab

Artista: Enrique Bunbury
Rola: Hay Muy Poca Gente


Ya que nadie se animo a sacar el solo pues yo si,
aquí esta.


Intro: E (x 4)

E|----------------------------|
D|---5---5-5-4-2---2----------|
G|---------------4------------|
D|----------------------------|
A|----------------------------|
E|----------------------------|


Verso:
       C#m
Me gustaría poder
  B
girar como un carrusel
    C#m
O seguir la corriente
     B
y cruzar el puente

         A
De la incomunicación
      C#m
y saludar desde el balcón
      B
Sonriendo como los artistas
                          E
en las revistas del corazón


E (x 2)

E|----------------------------|
D|---5---5-5-4-2---2----------|
G|---------------4------------|
D|----------------------------|
A|----------------------------|
E|----------------------------|


Verso:
       C#m
Me gustaría celebrar
       B
y brindar por la navidad
    C#m
Vacaciones en familia
        B
y prepararles la comida

     A
Una barbacoa al Sol 
   C#m
y tarde de televisión
     B
Pero ese no es mi estilo
                              E
y es tarde ya para cambiar y...


Estribillo:
E             G#m                C#m
Nada puede dañarme con mis amigos
            B
Nadie puede, nada puede
E               G#m
Las palabras no sirven para nada
   C#m                 Am
Y empiezo a pensar que en realidad
             C#m
Hay muy poca gente


Verso:
       C#m
Me gustaría continuar,
     B
una saga milenaria
     C#m
Pero formo parte de
       B
una generación espontánea

           A
que se defiende mejor
      C#m
en el cara a cara
       B
en el cuerpo a cuerpo y tiempo al tiempo
                            E
es tarde ya para cambiar y...


Estribillo:
E             G#m                C#m
Nada puede dañarme con mis amigos
            B
Nadie puede, nada puede
E               G#m
Las palabras no sirven para nada
   C#m                 Am
Y empiezo a pensar que en realidad
             C#m
Hay muy poca gente


E                     D
Y abrimos las puertas, quizás por costumbre
A           Am           E
tal vez por búsqueda inocente
C#m               B
y nos encontramos...


Estribillo:
E             G#m                C#m
Nada puede dañarme con mis amigos
            B
Nadie puede, nada puede
E               G#m
Las palabras no sirven para nada
   C#m                 Am
Y empiezo a pensar que en realidad
              E
Hay muy poca gente


Solo:
   E                  C#m                       B
E|--------------------------------------------------------------------|
D|--------------------------------------------------------------------|
G|--------------------------------------------------------------------|
D|-14~~-----9-11-13-14-13-9----------9-11-13-14-13-11-------9----9~~~-|
A|-------11-----------------11~~--11------------------11~~----11------|
E|--------------------------------------------------------------------|

                     E                           G#m
E|------------------------------------------------------------|
D|-----------------------12----------12-14-16-17-16-12--------|
G|-------------------13~~---13~~--13-------------------13~~\--|
D|-9/11-13-13/14-16-------------------------------------------|
A|------------------------------------------------------------|
E|------------------------------------------------------------|

              C#m                      B                            E
E|----------------------------------------------------------------------|
D|------12-14-14~~-12---------------12--------------*-------------12----|
G|--/13---------------13~~\---/13~~----13~~-11~~--11b12r11p9-11---11b12-|
D|------------------------------------------------------------------*---|
A|----------------------------------------------------------------------|
E|----------------------------------------------------------------------|

*: No estoy seguro si el bend es hasta el 12 o 13.

E                G#m
Las palabras no sirven para nada
     C#m               Am
y empiezo a pensar que en realidad
                E
Hay muy poca gente.


Al final, en el ultimo verso yo toco esto:
   E                      G#m        
E|-------------------------------------------------|
D|-----0-----------0-----------4-----------4-------|
G|-------1---1-------1---1-------4---4-------4---4-|
D|---2-----2-----2-----2-----6-----6-----6-----6---|
A|-------------------------------------------------|
E|-0-----------0-----------4-----------4-----------|

  C#m                     Am      E
E|--------------------------------0-----------------|
D|-----5-----------5--------------0-----------------|
G|-------6---6-------6---6--------1-----------------|
D|---6-----6-----6-----6----------2-----------------|
A|-4-----------4------------------2-----------------|
E|-------------------------5------0-----------------|

Pero como quieran, si lo quieren tocar bueno y si no tambien.

Groteskia
darkeinsamkeit@hotmail.com
Tap to rate this tab
 
# A B C D E F G H I J K L M N O P Q R S T U V W X Y Z