Song name
# A B C D E F G H I J K L M N O P Q R S T U V W X Y Z

Enrique Bunbury - Frente A Frente tab

Intro

      Gm          D7                Gm      D7

e-------------------------------------------------------|
B-------------------------------------------------------|
G-----------------5-------3-----------------5-------3---|
D--------5--------4-------4----------5------4-------4---|
A------5---5------5----------------5---5----5-----------|
E---3----------------------------3----------------------|


Gm    D           Gm   D7              F
Queda,  que poco queda    de nuestro amor
              A#                D7
apenas queda nada, apenas ni palabras quedan...

 Gm   D            Gm    D7             F
Queda,  solo el silencio    que hace estallar
                 A#                      D7
la noche fria y larga, la noche que no acaba
           Gm
solo eso queda

       Gm        F           D#      F
Solo quedan las ganas de llorar, al ver que
                  A#  D7             Gm     F
nuestro amor se aleja,  frente a frente, bajamos
      D#         F                          A#
la mirada, pues ya no queda nada de que hablar,
 D
nada...

  Gm  D           Gm  D7           F
Queda,   poca ternura,   y alguna vez, haciendo
       A#                    D7
una locura, un beso y a la fuerza, queda..

Gm    D            Gm  D7           F
Queda,  un gesto amable  para no hacer la vida
        A#                     D7              Gm
insoportable y asi ahogar las penas solo eso queda

       Gm        F           D#      F
Solo quedan las ganas de llorar, al ver que
                  A#  D7            Gm      F
nuestro amor se aleja,  frente a frente, bajamos
      D#         F                          A#
la mirada, pues ya no queda nada de que hablar,
 D
nada...

       Gm        F           D#      F
Solo quedan las ganas de llorar, al ver que
                  A#  D7           Gm       F
nuestro amor se aleja,  frente a frente, bajamos
      D#         F                          A#
la mirada, pues ya no queda nada de que hablar,
 D
nada...


/-----------10-------------------------11------------18-17----------|
/-11--10-11----11-10-11-------11-10-11----11-10------------18--16---|
/-------------------------------------------------------------------|
/-------------------------------------------------------------------|
/-------------------------------------------------------------------|
/-------------------------------------------------------------------|


------------------|
------------------|
------------------|
-------3----------|
-3--1-------------|
------------------|


------------------|
------------------|
------------------|
-------3--2---0---|
-3--1-------------|
------------------|
Tap to rate this tab
 
# A B C D E F G H I J K L M N O P Q R S T U V W X Y Z