Song name
# A B C D E F G H I J K L M N O P Q R S T U V W X Y Z

Enrique Bunbury - Infinito tab

e|------------------------------------------------------------------|
B|------------------------------------------------------------------|
G|------------------------------------------------------------------|
D|----------------2-1-0------/5-4-2-----2-1--0-----/5-4-2-4-5-------|
A|----------------------2-----------2----------2--------------------|
E|------------------------------------------------------------------|
   
e|------------------------------------------------------------------|
B|------------------------------------------------------------------|
G|------------------------------------------------------------------|
D|-7/9-9-9-9-9-9-9/10-10-9-9\7-7-7-6-7-7-7-7-7----------------------|
A|------------------------------------------------------------------|
E|------------------------------------------------------------------|
       
e|------------------------------------------------------------------|
B|------------------------------------------------------------------|
G|--------------5---5-4---5---5-------------------------------------|
D|-7-9-10-9-7-5---5-----4---3---3-2-1-0-----------------------------|
A|--------------------------------------2-0-------------------------|
E|------------------------------------------3-0---------------------|

e|------------------------------------------------------------------|
B|--------------7-7-7-7-7-7-7/10-10/8-8-8-8-------------------------|
G|------------------------------------------------------------------|
D|-------------9-9-9-9-9-9-9/10-10/9-9-9-9--------------------------|
A|------------------------------------------------------------------|
E|------------------------------------------------------------------|

e|------------------------------------------------------------------|
B|--8-8-8-8-8-8/10-10-10/7-7-7-7/10-10-10-10/8-8-8-8----------------|
G|------------------------------------------------------------------|
D|-9-9-9-9-9-9/10-10-10/9-9-9-9/10-10-10-10/9-9-9-9-----------------|
A|------------------------------------------------------------------|
E|------------------------------------------------------------------|
     
e|------------------------------------------------------------------|
B|--8-8-8-8/10-10/12-12-12-12/13-13-13-/12-12/10-10/8-8/10-10-------|
G|------------------------------------------------------------------|
D|-9-9-9-9/10-10/12-12-12-12/14-14-14-/12-12/10-10/9-9/10-10--------|
A|------------------------------------------------------------------|
E|------------------------------------------------------------------|
             
e|------------------------------------------------------------------|
B|--10-10-10-10-10/8-8-8-8-8-8/7-7-7-7-7-7-7-7-7-7-7-7-7-7-7-7-7-7--|
G|------------------------------------------------------------------|
D|-10-10-10-10-10/9-9-9-9-9-9-9-9-9-9-9-9-9-9-9-9-9-9-9-9-9-9-9-9---|
A|------------------------------------------------------------------|
E|------------------------------------------------------------------|
                      
e|------------------------------------------------------------------|
B|-----------------------7-7-7-7-7-7/10-10-10-10/8-8-8-8------------|
g|------------------------------------------------------------------|
D|--------------------2/9-9-9-9-9-9/10-10-10-10/9-9-9-9-------------|
A|------------------------------------------------------------------|
E|------------------------------------------------------------------|
                    
e|------------------------------------------------------------------|
B|--8-8-8-8-8-8/10-10-10/7-7-7-7/10-10-10-10/8-8-8-8----------------|
G|------------------------------------------------------------------|
D|-9-9-9-9-9-9/10-10-10/9-9-9-9/10-10-10-10/9-9-9-9-----------------|
A|------------------------------------------------------------------|
E|------------------------------------------------------------------|
                 
e|------------------------------------------------------------------|
B|--8-8-8-8-8-8/10-10/12-12-12-12/13-13-13/12-12/10-10/8-8/10-10----|
G|------------------------------------------------------------------|
D|-9-9-9-9-9-9/10-10/12-12-12-12/14-14-14/12-12/10-10/9-9/10-10-----|
A|------------------------------------------------------------------|
E|------------------------------------------------------------------|

e|------------------------------------------------------------------|
B|--10-10-10-10-10/8-8-8-8-8-8/7-7-7-7-7-7-7-7-7-7-7-7--------------|
G|-----------------------------------------------------4-3-2--5-4---|
D|-10-10-10-10-10/9-9-9-9-9-9-9-9-9-9-9-9-9-9-9-9-9-9-------------2/|
A|------------------------------------------------------------------|
E|------------------------------------------------------------------|

e|------------------------------------------------------------------|
B|------------------------------------------------------------------|
G|------------------------------------------------------------------|
D|----------------2-1-0------/5-4-2-----2-1--0-----/5-4-2-4-5-------|
A|----------------------2-----------2----------2--------------------|
E|------------------------------------------------------------------|

e|------------------------------------------------------------------|
B|------------------------------------------------------------------|
G|------------------------------------------------------------------|
D|-7/9-9-9-9-9-9-9/10-10-9-9\7-7-7-6-7-7-7-7-7----------------------|
A|------------------------------------------------------------------|
E|------------------------------------------------------------------|

e|------------------------------------------------------------------|
B|------------------------------------------------------------------|
G|--------------5---5-4---5---5-------------------------------------|
D|-7-9-10-9-7-5---5-----4---3---3-2-1-0-----------------------------|
A|--------------------------------------2-0-------------------------|
E|------------------------------------------3-0---------------------|
Solo de acordẹn
   Em             Bm                    Em       Bm             Em
e|------------------------------------------------------------------|
b|--8-8-8-8-8-8-8/7-7-7-7-7/10-10-10-10/8-8-8-8-8/7-7-7-7/10-10/8-8-|
g|------------------------------------------------------------------|
D|-9-9-9-9-9-9-9-9-9-9-9-9/10-10-10-10/9-9-9-9-9-9-9-9-9/10-10/9-9--|
A|------------------------------------------------------------------|
E|------------------------------------------------------------------|


e|------------------------------------------------------------------|
B|--------------7-7-7-7-7-7-7/10-10/8-8-8-8-------------------------|
G|------------------------------------------------------------------|
D|-------------9-9-9-9-9-9-9/10-10/9-9-9-9--------------------------|
A|------------------------------------------------------------------|
E|------------------------------------------------------------------|

e|------------------------------------------------------------------|
B|--8-8-8-8-8-8/10-10-10/7-7-7-7/10-10-10-10/8-8-8-8----------------|
G|------------------------------------------------------------------|
D|-9-9-9-9-9-9/10-10-10/9-9-9-9/10-10-10-10/9-9-9-9-----------------|
A|------------------------------------------------------------------|
E|------------------------------------------------------------------|

e|------------------------------------------------------------------|
B|--8-8-8-8/10-10/12-12-12-12/13-13-13-/12-12/10-10/8-8/10-10-------|
G|------------------------------------------------------------------|
D|-9-9-9-9/10-10/12-12-12-12/14-14-14-/12-12/10-10/9-9/10-10--------|
A|------------------------------------------------------------------|
E|------------------------------------------------------------------|

e|------------------------------------------------------------------|
B|--10-10-10-10-10/8-8-8-8-8-8/7-7-7-7-7-7-7-7-7--------------------|
G|---------------------------------------------------/4-3-2--5-4----|
D|-10-10-10-10-10/9-9-9-9-9-9-9-9-9-9-9-9-9-9-9-9----------------2/-|
A|------------------------------------------------------------------|
E|------------------------------------------------------------------|

e|------------------------------------------------------------------|
B|------------------------------------------------------------------|
G|------------------------------------------------------------------|
D|----------------2-1-0------/5-4-2-----2-1--0-----/5-4-2-4-5-------|
A|----------------------2-----------2----------2--------------------|
E|------------------------------------------------------------------|

e|------------------------------------------------------------------|
B|------------------------------------------------------------------|
G|------------------------------------------------------------------|
D|-7/9-9-9-9-9-9-9/10-10-9-9\7-7-7-6-7-7-7-7-7----------------------|
A|------------------------------------------------------------------|
E|------------------------------------------------------------------|

e|------------------------------------------------------------------|
B|------------------------------------------------------------------|
G|--------------5---5-4---5---5-------------------------------------|
D|-7-9-10-9-7-5---5-----4---3---3-2-1-0-----------------------------|
A|--------------------------------------2-0-------------------------|
E|------------------------------------------3-0---------------------|

e|------------------------------------------------------------------|
B|------------------------------------------------------------------|
G|--------------5---5-4---5---5-------------------------------------|
D|-7-9-10-9-7-5---5-----4---3---3-2-1-0-----------------------------|
A|--------------------------------------2-0-------------------------|
E|------------------------------------------3-0---------------------|

G|------------------------------------------------------------------|
D|-9-9-9-9-9-9-10---------------------------------------------------|
A|------------------------------------------------------------------|
Tap to rate this tab
# A B C D E F G H I J K L M N O P Q R S T U V W X Y Z