Song name
# A B C D E F G H I J K L M N O P Q R S T U V W X Y Z

Enrique Granados - Valses Poticos 7 Pieces H147 No 4 - Allegro Humoristico tab

Valses Poeticos 3 - Allegro humoristico - Enrique Granados

Transcribed by prusche (prusche at hotmail.com)

|---1-1-----|---1-1-----|-------------|------------|
|-3------3--|-1------1--|-------3-1---|------------|
|-----------|-----------|-3-2-3-----3-|-2-0--------|
|-3------3--|-3------3--|-0-------1---|------3-----|
|-1------1--|-0------0--|---------3---|-3----------|
|-----------|-----------|-3-----------|-1----------|

|---6-6-----|---6-6-----|---------3-----|----------|
|-8------8--|-6------6--|-6p4-3-4---6-4-|-3--------|
|-----------|-3------3--|---------------|---5-3----|
|-8------8--|-0------0--|---5-------3---|-3--------|
|-6------6--|-----------|---3-------0---|----------|
|-----------|-----------|---------------|-6--------|

|---1-1-----|-----------|-------------|------------|
|-3------3--|---6-6-----|-------3-1---|------------|
|-----------|-5------5--|-3-2-3-----3-|-2-0--------|
|-3------3--|-3------3--|-0-------1---|------3-----|
|-1------1--|-0------0--|---------3---|-3----------|
|-----------|-----------|-3-----------|-1----------|

|---6-6-----|---6-6-----|---------3-----|----------||
|-8------8--|-6------6--|-6p4-3-4---6-4-|-3--------||
|-----------|-3------3--|---------------|---5-3----||
|-8------8--|-0------0--|---5-------3---|-3--------||
|-6------6--|-----------|---3-------0---|----------||
|-----------|-----------|---------------|-6--------||

|---------0---|-5-----0----|--------------|-10---------8--|
|-3-----2-----|---------8--|-8-----7-10---|---------10----|
|-------0---2-|---0-2------|-------5----7-|-------7-------|
|-----2-------|------------|-----7--------|----10---------|
|---0---------|-4----------|---5----------|--9------------|
|-------------|------------|--------------|---------------|

|-8p6----6-10-8-6-|-5-----------|-------------|------------|
|-----10----------|---8-7-------|-------------|---------3--|
|---0-------------|-5-----8-7-5-|-3-2-0---0-2-|-------2----|
|-----------------|-------------|-------4-----|-4-2-0------|
|-----------------|-6-----------|-----1---4---|-5----------|
|-----------------|-------------|-3-----------|------------|

|---------0---|-5-----0----|--------------|-10---------8--|
|-3-----2-----|---------8--|-8-----7-10---|---------10----|
|-------0---2-|---0-2------|-------5----7-|-------7-------|
|-----2-------|------------|-----7--------|----10---------|
|---0---------|-4----------|---5----------|--9------------|
|-------------|------------|--------------|---------------|

|-8p6----6-10-8-6-|-5-----------|-------------|------------------||
|-----10----------|---8-7-------|-------------|------------------||
|---0-------------|-5-----8-7-5-|-3-2-0---0---|------------<12>--||
|-----------------|-------------|-------4---0-|-------<12>-------||
|-----------------|-6-----------|-----1-------|-1-0--------------||
|-----------------|-------------|-3-----------|-----3------------||

|---1-1-----|---1-1-----|-------------|------------|
|-3------3--|-1------1--|-------3-1---|------------|
|-----------|-----------|-3-2-3-----3-|-2-0--------|
|-3------3--|-3------3--|-0-------1---|------3-----|
|-1------1--|-0------0--|---------3---|-3----------|
|-----------|-----------|-3-----------|-1----------|

|---6-6-----|---6-6-----|---------3-----|----------|
|-8------8--|-6------6--|-6p4-3-4---6-4-|-3--------|
|-----------|-3------3--|---------------|---5-3----|
|-8------8--|-0------0--|---5-------3---|-3--------|
|-6------6--|-----------|---3-------0---|----------|
|-----------|-----------|---------------|-6--------|

|---1-1-----|-----------|-------------|------------|
|-3------3--|---6-6-----|-------3-1---|------------|
|-----------|-5------5--|-3-2-3-----3-|-2-0--------|
|-3------3--|-3------3--|-0-------1---|------3-----|
|-1------1--|-0------0--|---------3---|-3----------|
|-----------|-----------|-3-----------|-1----------|

|---6-6-----|---6-6-----|---------3-----|----------*|
|-8------8--|-6------6--|-6p4-3-4---6-4-|-3--------*|
|-----------|-3------3--|---------------|---5-3----*|
|-8------8--|-0------0--|---5-------3---|-3--------*|
|-6------6--|-----------|---3-------0---|----------*|
|-----------|-----------|---------------|-6--------*|

***************************************************
* Generated using Power Tab Editor by Brad Larsen *
* http://powertab.guitarnetwork.org               *
***************************************************
Tap to rate this tab
# A B C D E F G H I J K L M N O P Q R S T U V W X Y Z