Song name
# A B C D E F G H I J K L M N O P Q R S T U V W X Y Z

Enrique Iglesias - Hero tab

Help us improve GuitareTab! Take a short survey!
      Key

 / = slide up
 \ = slide down
 h = hammer
 p = pull
 ~ = vibrato



Intro Part 1 (with Guitar only)
e----------------------------------------------------------|
B----------------------------------------------------------|
G----------------------------------------------------------|
D---------7---10---9---7---9---7---------------------------|
A---5/7----------------------------8----------7h8p7h8p7----|
E----------------------------------------------------------|

Intro Part 2 (with guitar and rhythm-listen to song for timing)
e----------------------------------------------------------|
B----------------------------------------------------------|
G----------------------------------------------------------|
D------7h10--9--7--9~~-----7-------------------------------|
A---7-------------------------8--------7h8p7--5--7---------|
E----------------------------------------------------------|

e----------------------------------------------------------|
B-----8----------------------------------------------------|
G--------10--9--7------------------------------------------|
D--7-------------------10p9p7------------------------------|
A----------------------------------------------------------|
E----------------------------------------------------------|


VERSE 1: Am-Dm-G-F-Am
         Am-Dm-G-F-E
	 Am-F-C-G-E

CHORUS: Am-G-F
        Am-G-F
        Am-G-F
        Am-G-F-E

solo -1st chorus
e--------------------------------------------------------------|
B--9--9------9--10--9------------------------------------------|
G----------------------9---------------------------------------|
D-------------------------9--7----7/9\7------7/10\9--10--9--7--|
A--------------------------------------------------------------|
E--------------------------------------------------------------|

e--------------------------------------------------------------|
B--------------------------------------------------------------|
G--9--10--9--10--9---------------------------------------------|
D-------------------10--10/12------10p9p7--6/7-----------------|
A--------------------------------------------------------------|
E--------------------------------------------------------------|


VERSE 2:

Here is where the 2 guitars play together.
Guitar 1 plays the same chords as verse 1.
Guitar 2 plays individual solos with each line of
of lyrics.


Play this solo after...
e---------------------------------------------|
B---------------------------------------------|
G--9h10--9-----7------------------------------|
D----------------10--9------------------------|
A---------------------------------------------|
E---------------------------------------------|

e---------------------------------------------|
B---------------------------------------------|
G---------------------------------------------|
D--------9h10--9--7--9h10~~~------------------|
A--7--8---------------------------------------|
E---------------------------------------------|

e---------------------------------------------|
B---------------------------------------------|
G--7/9--7/9--7~~~-----------------------------|
D---------------------------------------------|
A---------------------------------------------|
E---------------------------------------------|

e---------------------------------------------|
B---------------------------------------------|
G---------------------------------------------|
D-----7------9--10--9--7----------------------|
A--7------------------------------------------|
E---------------------------------------------|

e---------------------------------------------|
B--------------------------------7--7/9-------|
G---------------------------------------------|
D--9----9h10----------------------------------|
A---------------------------------------------|
E---------------------------------------------|

REPEAT CHORUS


Solo after interlude
e------------------------------------------------------------|
B------------------------------------------------------------|
G--------------------------------------7-------7/9--7--------|
D-----7--10--9--7--10--9------7/9--10-----10-----------------|
A--7---------------------------------------------------------|
E------------------------------------------------------------|

e------------------------------------------------------------|
B------------------------------------------------------------|
G--10--9--7--9--10----9--7--9----9/10~~~----9--7-------------|
D------------------------------------------------------------|
A------------------------------------------------------------|
E------------------------------------------------------------|

e------------------------------------------------------------|
B--6/8-------------------------------------------------------|
G-------10--9--7---------------------------------------------|
D-----------------10--9--7----------7----9-------------------|
A---------------------------6--5/7---------------------------|
E------------------------------------------------------------|

e--7--8--10--10----8----10/12--10----------------------------|
B------------------------------------------------------------|
G------------------------------------------------------------|
D------------------------------------------------------------|
A------------------------------------------------------------|
E------------------------------------------------------------|

e------------------------------------------------------------|
B--10--13--12----10--12--10------10--13--12----10--12--10----|
G------------------------------------------------------------|
D------------------------------------------------------------|
A------------------------------------------------------------|
E------------------------------------------------------------|

e------------------------------------------------------------|
B--12----10--------------------------------------------------|
G------------12----------------------------------------------|
D------------------9----7/9----7--5--------------------------|
A------------------------------------7--5--------------------|
E------------------------------------------7--5--------------|

RETURN TO CHORUS
Related for Hero tab