Guitaretab - guitar tabs
Song name
# A B C D E F G H I J K L M N O P Q R S T U V W X Y Z

Enrique Iglesias - Tired Of Being Sorry tab

-3---3---3-4-3----------------------------------|
---------------6-4-4/6--------------------------|
------------------------------------------------|
------------------------------------------------|
------------------------------------------------|
------------------------------------------------|
[ Tab from: http://www.guitaretab.com/e/enrique-iglesias/160927.html ]
-3--3--3--3-h4----------------------------------|
---------------6--4-----------------------------|
--------------------5---------------------------|
------------------------------------------------|
------------------------------------------------|
------------------------------------------------|


--8/6-6/4--4-----------------------------------|
-9-/8--8/6--6---------3--h4-h6-h4-----3h4h3-----|
------------------------------------------------|
------------------------------------------------|
------------------------------------------------|
------------------------------------------------|

i am hossam and this is my first, its a peace of cake hope u like it ;)
hosdeath@hotmail.com
Related for Tired Of Being Sorry tab