Song name
# A B C D E F G H I J K L M N O P Q R S T U V W X Y Z

Enrique Iglesias - Be With You tab

e-----7--5--4-----------------------------------------------|
B--------------7-----7-5-7--7/9--9--------------------------|
G--4--------------------------------------------------------|
D-----------------------------------------------------------|
A-----------------------------------------------------------|
E-----------------------------------------------------------|

e-----5/7--5--7/9-------------------------------------------|
B------------------7------5\4-2------9/10-9-----------------|
G--4--------------------------------------------------------|
D-----------------------------------------------------------|
A-----------------------------------------------------------|
E-----------------------------------------------------------|

Verse 1:
E                  B
Monday night, and I feel so low,
C#m                       G#m
I count the hours, but they go so slow.
C#m                               G#m
I know the sound of your voice, can save my soul.
E                 B
City lights, the streets are gold.
C#m                         G#m
Looked down my window to the world below.
C#m                                       G#m
Move so fast, but it feels so cold, and I am all alone,
A
Don't let me die, I'm losing my mind,
B
Baby, just give me a sign.

Chorus:
A                   B                 C#m             G#m
And now that you're gone, I just wanna be with you.(Be with you)
A               B          C#m           G#m
And I can't go on, I wanna be with you.
A                        C#m
Wanna be with you. Wanna be with you.

e-----------------------------------------------------------|
B--7/9--7-5-4------------555/7\5----------------------------|
G-------------6---------------------------------------------|
D---------------6\5/6--5------------------------------------|
A-----------------------------------------------------------|
E-----------------------------------------------------------|

Verse 2

I can't sleep, I'm up all night.
Through these tears, I try to smile.
I know, the touch of your hand, can save my life.

e--------------------|
B--------7-7/9-7-5/7-|
G----8-9-------------|
D--6-----------------|
A--------------------|
E--------------------|

But don't let me down, come to me now,
I got to be with you some how.

Chorus:
A                   B                 C#m             G#m
And now that you're gone, I just wanna be with you.(Be with you)
A               B          C#m           G#m
And I can't go on, I wanna be with you.
A
Wanna be with you..

--------------9------------------------|
----9-10-12-----9------4-5-4/5\4-------|
---------------------------------6-----|
---------------------------------------|
---------------------------------------|
---------------------------------------|

Solo

e---------------5/7-7-7-5-4-5-3/4-12--161616-14-12-11-12----|
B--7/9-9-9-7-5-7-----------------------------------------12-|
G-----------------------------------------------------------|
D-----------------------------------------------------------|
A-----------------------------------------------------------|
E-----------------------------------------------------------|

B
I got to be with you some how.
    A                B
And now that you're gone,
             C#m               G#m
[Spoken] Who am I without you now?
A          B              C#m            G#m
I can't go on, I just wanna be with you.

Chorus:
A                   B                 C#m             G#m
And now that you're gone, I just wanna be with you.(Be with you)
A               B          C#m           G#m
And I can't go on, I wanna be with you.
e-----------------|
B-7-5-7--7/9--9---|
G-----------------|
D-----------------|
A-----------------|
E-----------------|


Chorus:
A                   B                 C#m             G#m
And now that you're gone, I just wanna be with you.(Be with you)
e--------------------|
B--------8-6-5/6\5---|
G--7-5-7-----------7-|
D--------------------|
A--------------------|
E--------------------|

A               B          C#m           G#m
And I can't go on, I wanna be with you.
A
Wanna be with you..


e-----------------------------------------------------------|
B----4-5-7--5-4-5------121212-10-9-10-9-7-9-7-5-7-----------|
G--6--------------------------------------------------------|
D-----------------------------------------------------------|
A-----------------------------------------------------------|
E-----------------------------------------------------------|
Tap to rate this tab
 
# A B C D E F G H I J K L M N O P Q R S T U V W X Y Z