Enrique Iglesias - Tonight tab

Tabbed by Ryan Conway

 Intro (ooo eee ooo eee ooo)

|---3-------3---3-----3--------------------------|
|-----6-4-----6---------6-4-3-3-3-4--------------|
|-5-------5-------3-3---------------5--3-3-3-5-5-|
|------------------------------------------------|
|------------------------------------------------|
|------------------------------------------------|

Chorus

|----------------------------------| 
|----------------------------------|
|----------------------------------|
|-5-5-5-5-8-8-8-8-1-1-1-1----------|
|-3-3-3-3-6-6-6-6-3-3-3-3-6-6-6-6--|
|-------------------------3-3-3-3--|


Build up after chorus

|-8-11-11-11-|
|------------|
|------------|
|------------|
|------------|

  Part with the bending high pitch notes
|---------------------------|
|---------8------------4----|
|-5-5-5-5---5--3-3-3-3------|
|---------------------------|
|---------------------------|
|---------------------------|
Tap to rate this tab
 
# A B C D E F G H I J K L M N O P Q R S T U V W X Y Z