Song name
# A B C D E F G H I J K L M N O P Q R S T U V W X Y Z

Enrique Iglesias - Ayer chords

Highlighted       Show chord diagrams
-----------------------------------------------------------------------------
			     AYER - Enrique Iglesias
-----------------------------------------------------------------------------

Tabbed by: jojozap
Email: jobee76@hotmail.com

Tuning: Standard

This is my 1st tab. Hope it works out well! :D
Pls tell me if u find any mistakes..
And yeah, i love this song even though i don't know what he's saying. ==

Verse:

   D             Cadd9       G
e|-----2-------|-----0-----|-----3-----------------3---------------|
B|-------3---3-|-------3---|-------3---3-------------3---3---------|
G|---2-----2---|---0-----0-|---0-----0-----------0-----0-----------|
D|-0-----------|-----------|-----------------0-----------------0h2-|
A|-------------|-3---------|-------------0h2---------------0h2-----|
E|-------------|-----------|-3-----------------3-------------------|
  Hey, dime a donde vas, y si sabes tu destino

   D                 Cadd9      G
e|-----2---3p2---2-|-----0-----|-----3-----------------|
B|-------3-----3---|-------3---|-------3---3-----------|
G|---2-------------|---0-----0-|---0-----0-------------|
D|-0---------------|-----------|-----------------0h2---|
A|-----------------|-3---------|-------------0h2-------|
E|-----------------|-----------|-3---------------------|
   Hey, donde dejaras tus sueños escondidos

       Cadd9
   Mira que la luna nos dejo
                       G
   Iluminados bien de cerca
        Cadd9
   Y a pesar de aquel adiós
                                 G
   Mi puerta siempre estuvo abierta
         D
   Como antes

Chorus:
  G                      D
   Ayer caías en mi corazón
                            Cadd9
   Y te escondiste en un rincón
              C
   Del otro lado
  G                        D
   Yo se que la vida nos dejo
                       Cadd9
   Saber que nuestro amor
                C
   No esta acabado
                 G
   (No esta acabado)

Verse 2:

   D                 Cadd9             G
e|-----2---3p2---2-|-----0-----0-----|-----3------------3-------|
B|-------3-----3---|-------3-----3---|-------3---3--------3---3-|
G|---2-------------|---0-----0-----0-|---0-----0------0-----0---|
D|-0---------------|-----------------|--------------------------|
A|-----------------|-3---------------|--------------------------|
E|-----------------|-----------------|-3------------3-----------|
   Hey, tu mirada dice estar arrepentida

   D                 C add9            G
e|-----2---3p2---2-|-----0-----0-----|-----3-------|
B|-------3-----3---|-------3-----3---|-------3---3-|
G|---2-------------|---0-----0-----0-|---0-----0---|
D|-0---------------|-----------------|-------------|
A|-----------------|-3---------------|-------------|
E|-----------------|-----------------|-3-----------|
   Hey, dime si es verdad, o es solo idea mía!

         Cadd9
   Di que no es locura ni obsesión
                              G
   Que no es capricho, simplemente
       Cadd9
   Dile que lo sientes y que
                              G
   Yo nunca he dejado de quererte
         D
   Como antes

Chorus:
  G                      D
   Ayer caías en mi corazón
                            Cadd9
   Y te escondiste en un rincón
              C
   Del otro lado
  G                        D
   Yo se que la vida nos dejo
                       Cadd9
   Saber que nuestro amor
                C
   No esta acabado
                 G
   (No esta acabado)

Chorus:
  G                      D
   Ayer caías en mi corazón
                            Cadd9
   Y te escondiste en un rincón
              C
   Del otro lado
  G                        D
   Yo se que la vida nos dejo
                       Cadd9
   Saber que nuestro amor
                C
   No esta acabado
                 G
   (No esta acabado)
  
   D               Cadd9             G
e|-----2---3---2-|-------0---0-----|-3-------|
B|-------3---3---|-----3---3---3---|-3-------|
G|---2-----------|---0-----------0-|-0-------|
D|-0-------------|-----------------|---------|
A|---------------|-3---------------|---------|
E|---------------|-----------------|-3-------|
   Hey dime a donde vas, Y si sabes tu destino
Tap to rate this tab
# A B C D E F G H I J K L M N O P Q R S T U V W X Y Z