Guitaretab - guitar tabs
Song name
# A B C D E F G H I J K L M N O P Q R S T U V W X Y Z

Enrique Iglesias - If The World Crashes Down tab

not %100 on the intro but it works

Intro and Pre-Chorus
e|-1-----1-----1-----1-----1-----1------------------------|
b|---3-----3-----3-----3-----3-----3----------------------|
g|-----------------3-----3-----0-----0--0-5-9-12-10-9-7-5-|
d|-----0-----0--------------------------------------------|
a|--------------------------------------------------------|
e|--------------------------------------------------------|

Lil Riff
e|-----------------------------|
b|-----------------------------|
g|-3-2-------------------------|
d|-----3-0----3----------------|
a|--------------3--------3-5-3-|
e|-----------------------------|

Verse
e|------------------------------------|
b|------------------------------------|
g|-10-10-10-10-10-9--10-10-10-10-10-9-|
d|------------------------------------|
a|------------------------------------|
e|------------------------------------|

Chorus
e|---------------------------------------------|
b|---------------------------------------------|
g|----3--5------------3--5--------3----3--5----|
d|-3--3--5--2-3-5--3--3--5--2-3-5------3--5--3-|
a|-3--1--3---------3--1--3-------------1--3--3-|
e|-1---------------1-------------------------1-|
[ Tab from: http://www.guitaretab.com/e/enrique-iglesias/31692.html ]
Solo
e|-20-20-20-20/17-17/13-13---------------------------------------|
b|------------------------------6--10^10^10^10^10^10^-8^-6-8-6---|
g|--------------------------5h7--------------------------------7-|
d|---------------------------------------------------------------|
a|---------------------------------------------------------------|
e|---------------------------------------------------------------|

e|-------------------------------------------10-13-10-8-8-|
b|-8^8^8^8^8^8^-6---6-8-6/10^10^10^10^10^10^--------------|
g|----------------7---------------------------------------|
d|--------------------------------------------------------|
a|--------------------------------------------------------|
e|--------------------------------------------------------|

e|-----------------------------------------------|
b|-----------------------------------------------|
g|-7-7-7-7/9-9-9-9/10-10-10-10/12-12-12-12/14-14-|
d|-----------------------------------------------|
a|-5-5-5-5/7-7-7-7/8--8--8--8-/10-10-10-10/12-12-|
e|-----------------------------------------------|

- thats pretty much it, i think  i only missed the riff used
at the beginning of verse 2 but you can just substitute verse 1 anyways
Related for If The World Crashes Down tab
If The World Crashes Down chords by Enrique Iglesias